Guitar Resources


Behind Blue Eyes (3) (By LIMP BIZKIT)
 
BEHIND BLUE EYES - LIMP BIZKIT




TAB by Ansgar Wolsing (www.schrammel-dich-fit.de)




CHORDS:

  em    G6     G   Dsus2   D   Cadd9   C   Asus2  bm
e -0-   -0-   -3-   -0-   -2-   -0-   -0-   -0-   -2-
B -0-   -0-   -3-   -3-   -3-   -3-   -1-   -0-   -2-
G -0-   -0-   -0-   -2-   -2-   -0-   -0-   -2-   -4-
D -2-   -0-   -0-   -0-   -0-   -2-   -2-   -2-   -4-
A -2-   -2-   -2-   ---   ---   -3-   -3-   -0-   -2-
E -0-   -3-   -3-   ---   ---   ---   ---   ---   ---




INTRO (picking pattern):
  em                G6                Dsus2             
|---------0-------|---------0-------|---------0-------|---------0--------|
|-----------0-----|-------0---3-----|-----3-----3---3-|-----3-----3---3--|
|-------0-----0---|-----0-------4---|---2---2-----2---|---2---2-----2----|
|-----2---------2-|---0-----------5-|-0---------------|-0----------------|
|---2-------------|-----------------|-----------------|------------------|
|-0---------------|-3---------------|-----------------|------------------|


  Cadd9                               Asus2
|---------0-------|---------0-------|---------0-------|---------0-------|
|-----3-----3---3-|-----3-----3---3-|-----0-----0---0-|-----0-----0---0-|
|-------0-----0---|-------0-----0---|-------2-----2---|-------2-----2---|
|---2-------------|---2-------------|---2-------------|---2-------------|
|-3---------------|-3---------------|-0---------------|-0---------------|
|-----------------|-----------------|-----------------|-----------------|





VERSE 1 (w/picking pattern):

em                      G6
No one knows what it's like
          Dsus2
To be the bad man
         Cadd9
To be the sad man
   Asus2 (strum this chord)
Behind blue eyes

    em                       G6
And no one knows what it is like 
      Dsus2
To be hated 
      Cadd9
To be faded 
           Asus2 (strum this chord)
To telling only lies



CHORUS:
         C    Cadd9   Dsus2
But my dreams       
               G
They aren't as empty
       C   Cadd9 Dsus2    em
As my conscious  seems to be
        bm             C
I have hours,    only lonely
           Dsus2
My love is vengeance
               Asus2
That's never free



VERSE 2 (w/picking pattern):
No one knows what it's like
To feel thesse feelings
Like i do, and i blame you!
No one bites back as hard
On their anger
None of my pain woe
Can show through



CHORUS



INTERLUDE (LIKE VERSES w/picking pattern):
Discover 
L.I.M.P. 
Say it



VERSE 4:
No one knows what it's like
To be mustreated, to be defeated
Behind blue eyes
No one knows how to say
That they're sorry and don't worry
I'm not telling lies


CHORUS


OUTRO (w/picking pattern)
em                      G6
No one knows what it's like
          Dsus2
To be the bad man
         Cadd9
To be the sad man
   Asus2 (strum this chord)
Behind blue eyes
Guitar Tabs FROM THE TOP 60 ARTISTS
1.  AC/DC Guitar Tabs
2.  AEROSMITH Guitar Tabs
3.  ALANIS MORISSETTE Guitar Tabs
4.  BEATLES Guitar Tabs
5.  BLINK 182 Guitar Tabs
6.  BOB DYLAN Guitar Tabs
7.  BOB MARLEY Guitar Tabs
8.  BUSH Guitar Tabs
9.  COLDPLAY Guitar Tabs
10.  DAVE MATTHEWS Guitar Tabs
11.  ERIC CLAPTON Guitar Tabs
12.  GRATEFUL Dead Guitar Tabs
13.  GREEN DAY Guitar Tabs
14.  IRON MAIDEN Guitar Tabs
15.  JACK JOHNSON Guitar Tabs
16.  JIMI HENDRIX Guitar Tabs
17.  JOHN MAYER Guitar Tabs
18.  JOHNNY CASH Guitar Tabs
19.  LED ZEPPELIN Guitar Tabs
20.  LIMP BIZKIT Guitar Tabs
21.  METALLICA Guitar Tabs
22.  NEIL YOUNG Guitar Tabs
23.  NIRVANA Guitar Tabs
24.  PEARL JAM Guitar Tabs
25.  PINK FLOYD Guitar Tabs
26.  RADIOHEAD Guitar Tabs
27  RED HOT CHILI PEPPERS Guitar Tabs
28  ROLLING STONES Guitar Tabs
29  STONE TEMPLE PILOTS Guitar Tabs
30  U2 Guitar Tabs
31.  VAN HALEN Guitar Tabs
32.  WEEZER Guitar Tabs