Guitar Resources


Boiler (By LIMP BIZKIT)
 
Artist: Limp Bizkit 
Album: Chocolate Starfish... 
Song: Boiler 
Tabbed By: Nathan Hurwood 

Drop D Tuning, then tune all strings down half step 
(low to high D# A# D# G# B# E#) 

Intro: 
(played with distortion, but turn the guitar volume down) 
    fade in 
E#:--------------------------- 
B#:--------------------7~~~~-- 
G#:--------------------------- 
D#:--7<<<<<<-8~~-10~~--0~~~~-- 
A#:--------------------------- 
D#:--------------------------- 
            \   repeat    / 

Chorus: 
(turn the volume all the way up) 
   listen to the song for the beat 
E#:-----------------------------------------------------333-------3-- 
B#:-----333-------3-----333-------3-----333-------3-----333-------3-- 
G#:-----222-------2-----222-------2-----222-xxxx--2--555555-xxxx-55-- 
D#:--000000-xxxx-00--000000-xxxx-00--333333-xxxx-33--555555-xxxx-55-- 
A#:--000000-xxxx-00--000000-xxxx-00--111111-xxxx-11--333333-xxxx-33-- 
D#:--000000-xxxx-00--000000-xxxx-00---------------------------------- 

Verse: 
(clean) 
just mess around on this scale loosly and lightly 
E#:------------3-5-6-5-3------------ 
B#:------3-5-6-----------6-5-3------ 
G#:--4-5-----------------------5-4-- 
D#:--------------------------------- 
A#:--------------------------------- 
D#:--------------------------------- 

Interlude: 
after the guitar starts to feedback go into this 
    >>>>fade>>>>    >>>>fade>>>> 
E#:-------------------------------- 
B#:-------------------------------- 
G#:--555555555555------------------ 
D#:-------------------------------- end on the c#5 with a PM 
A#:--333333333333----555555555555-- 
D#:------------------000000000000-- 

Outro is just Wes messin around with that scale with alot of reverb and 
delay. 

Thats the best i can do. this song has a weird beat and its hard to tab. 



Guitar Tabs FROM THE TOP 60 ARTISTS
1.  AC/DC Guitar Tabs
2.  AEROSMITH Guitar Tabs
3.  ALANIS MORISSETTE Guitar Tabs
4.  BEATLES Guitar Tabs
5.  BLINK 182 Guitar Tabs
6.  BOB DYLAN Guitar Tabs
7.  BOB MARLEY Guitar Tabs
8.  BUSH Guitar Tabs
9.  COLDPLAY Guitar Tabs
10.  DAVE MATTHEWS Guitar Tabs
11.  ERIC CLAPTON Guitar Tabs
12.  GRATEFUL Dead Guitar Tabs
13.  GREEN DAY Guitar Tabs
14.  IRON MAIDEN Guitar Tabs
15.  JACK JOHNSON Guitar Tabs
16.  JIMI HENDRIX Guitar Tabs
17.  JOHN MAYER Guitar Tabs
18.  JOHNNY CASH Guitar Tabs
19.  LED ZEPPELIN Guitar Tabs
20.  LIMP BIZKIT Guitar Tabs
21.  METALLICA Guitar Tabs
22.  NEIL YOUNG Guitar Tabs
23.  NIRVANA Guitar Tabs
24.  PEARL JAM Guitar Tabs
25.  PINK FLOYD Guitar Tabs
26.  RADIOHEAD Guitar Tabs
27  RED HOT CHILI PEPPERS Guitar Tabs
28  ROLLING STONES Guitar Tabs
29  STONE TEMPLE PILOTS Guitar Tabs
30  U2 Guitar Tabs
31.  VAN HALEN Guitar Tabs
32.  WEEZER Guitar Tabs