Guitar Resources


Dont Go Off Wondering (By LIMP BIZKIT)
 
-------------------------------------------------------------------------------
		       DON'T GO OFF WONDERING - Limp Bizkit
-------------------------------------------------------------------------------

Standard tuning: eBGDAE
Tabbed by Lev Beylin  coap01@aol.com

Personal note...This song was a bit weird to tab cuz there is all 
different kind of stuff going on at the same time.  I like the strings
in this song.  All the parts for the guitar are here and they sound 
pretty right to me.

Intro 1:  For the squicky part of the intro, on clean press the pick
against the fingerboard on the 2nd, 3rd, and 4th strings and just 
run it back and forth from 12th fret to 19th.  It might sound right
or might not, depending on how you do it.  Every time I tried it 
sounded different form the last try.  

Intro 2 (distorted) 
e-9---9---9---9----------------  
B-9---9---9---9----------------  You can play this on 4th fret on A 
G-9---9---9---9----------------  string, but i think this sounds more
D-11--11--11--11-11---11-11-11-  right.  But don't take my word on it
A-11--11--11--11-11---11-11-11-  try it both ways.
E-9---9---9---9--9----9--9--9--
              pm..............

Verse (clean)
*everyday is nothin'...*
e----------------------------------------------
B----------------------------------------------
G--------6-(6)-----6--6---6--4--4---4---4\6--6-
D----------------------------------------------
A-4-(4)---------0------------------------------
E----------------------------------------------

Chorus (distorted)
*you don't feel...*
e----------------------
B----------------------
G-6--6--6--------------
D-6--6--6--6-4--4--4\6-
A-4--4--4--------------
E----------------------

then Verse

Pre Chorus (distorted)
*do you think any...*
e---------------
B-------------8-
G-----6---------
D---------------
A-4~-----5~-----
E---------------

then Chorus, Intro 2

Bridge 1 (Distorted) 
e---------------------------------- 
B----------------------------------  Then a whole bunch  
G-6--------------------------------  of shit kicks in including vocals
D-------6-----5--------6-----5-----  its hard to distinguish the guitar
A-----------------3--------------4-  part but its still the same thing.
E----------------------------------

Bridge 2 (distorted)
*feel me...
e----------------------------
B----------------------------
G---6------5------9------8---
D----------------------------
A-4---4--3---3--7---7--6---6-
E----------------------------

Bridge 2 (distorted) pm=palm mute for duration
e---------------------------------------
B---------------------------------------
G---6----6-6--6-6-6-----9----6-6--6-6-6-
D--------6-6--6-6-6----------6-6--6-6-6-
A-4---4--4-4--4-4-4---7---7--4-4--4-4-4-
E---------------------------------------
         pm........          pm........

then right into Chorus then Intro 2

-------------------------------------------------------------------------------
Guitar Tabs FROM THE TOP 60 ARTISTS
1.  AC/DC Guitar Tabs
2.  AEROSMITH Guitar Tabs
3.  ALANIS MORISSETTE Guitar Tabs
4.  BEATLES Guitar Tabs
5.  BLINK 182 Guitar Tabs
6.  BOB DYLAN Guitar Tabs
7.  BOB MARLEY Guitar Tabs
8.  BUSH Guitar Tabs
9.  COLDPLAY Guitar Tabs
10.  DAVE MATTHEWS Guitar Tabs
11.  ERIC CLAPTON Guitar Tabs
12.  GRATEFUL Dead Guitar Tabs
13.  GREEN DAY Guitar Tabs
14.  IRON MAIDEN Guitar Tabs
15.  JACK JOHNSON Guitar Tabs
16.  JIMI HENDRIX Guitar Tabs
17.  JOHN MAYER Guitar Tabs
18.  JOHNNY CASH Guitar Tabs
19.  LED ZEPPELIN Guitar Tabs
20.  LIMP BIZKIT Guitar Tabs
21.  METALLICA Guitar Tabs
22.  NEIL YOUNG Guitar Tabs
23.  NIRVANA Guitar Tabs
24.  PEARL JAM Guitar Tabs
25.  PINK FLOYD Guitar Tabs
26.  RADIOHEAD Guitar Tabs
27  RED HOT CHILI PEPPERS Guitar Tabs
28  ROLLING STONES Guitar Tabs
29  STONE TEMPLE PILOTS Guitar Tabs
30  U2 Guitar Tabs
31.  VAN HALEN Guitar Tabs
32.  WEEZER Guitar Tabs