Guitar Resources


Eat You Alive (By LIMP BIZKIT)
 
Song:Eat You alive.
From:Results may vary.
Tabed by:Eoin Brett.




This is a pretty easy song for beginners who just want to learn the main riff.
Standard tuneing.


Main Riff,(Intro and Chorus)

e:-----------------------------------------------
b:-----------------------------------------------
g:-----------------------------------------------
d:-2-2-2-3-0-3--2-2-2-3-0-3--2-2-2-3-0-3--2-2-2-3
a:-2-2-2-3-0-3--2-2-2-3-0-3--2-2-2-3-0-3--2-2-2-3
e:-2-2-2-3-0-3--2-2-2-3-0-3--2-2-2-3-0-3--2-2-2-3





 Verse(fred sings'hey,you,miss i dont know what de fu*k your name is!......)
e:-------------------------------------------------------
b:-------------------------------------------------------
g:-------------------------------------------------------
d:-------------------------------------------------------
a:-0-4-4-4-5-0-5---0-4-4-4-5----0-4-4-4-5-0-5---0-4-4-4-5
e:-0-2-2-2-3-0-3---0-2-2-2-3----2-2-2-2-3-0-5---0-2-2-2-3




 Pre-Chorus(fred sings'no douth you bring out the animal inside)

e:-----------------------------------------------------------
b:-----------------------------------------------------------
g:-----------------------------------------------------------
d:-----------------------------------------------------------
a:--0-4-4-4-5-0-5---0-4-4-4-5----0-4-4-4-5-0-5-0-4-4-4-5-----
e:--0-2-2-2-3-0-3---0-2-2-2-3----0-2-2-2-3-0-3-0-2-2-2-3-----



 Chorus


e:-----------------------------------------------
b:-----------------------------------------------
g:-----------------------------------------------
d:-2-2-2-3-0-3--2-2-2-3-0-3--2-2-2-3-0-3--2-2-2-3
a:-2-2-2-3-0-3--2-2-2-3-0-3--2-2-2-3-0-3--2-2-2-3
e:-2-2-2-3-0-3--2-2-2-3-0-3--2-2-2-3-0-3--2-2-2-3

I eat you alive!!
I eat you alive!!
I eat you alive!!
I eat you alive!!


 Verse 
Hey you
miss too good to look my way and that's cool, 
you want nothing at all to do with me,
But I want you, ain't nothing wrong with wanting you, 
Cause I'm a man and I can think what the hell I want, 
You got that straight!!

Pre-chorus 
No doubt that (no doubt)
I'd love to (I'd love)
Sniff on them
Panties now!!!

Chorus
I'd eat you alive!
I'd eat you alive!
I'd eat you alive!
I'd eat you alive!



 Chorus 2 fred sings 'im sorry so sorry damn your so hot,
i want you so bad damn your so hot,it drives me yes
it drives me, absoulty insane!!!!'


e:---------------------------------------------------------------------
b:---------------------------------------------------------------------
g:---------------------------------------------------------------------
d:--4-4-4-4-4-4-4-4-4-4-4-4-6-6-6-6-8-8-8-8----------------------------
a:--2-2-2-2-2-2-2-2-2-2-2-2-4-4-4-4-6-6-6-6-6-6-6-6-6-6-6-6-6-6-6-6----
e:------------------------------------------4-4-4-4-4-4-4-4-4-4-4-4----







Interlude(1)(tis is the tricky part)
Clean with light delay.

e:----------------------------------------------------------------
b:--------13-------------13---------13-------------13-------------
g:-----12----12-------12---------12----12-------12---------------- 4 times.
d:--10---------------------------------------------------10-12----
a:-----------------13---------12-------------13-------------------
e:----------------------------------------------------------------

Interlude(2)(phaser and distortion)


e:-----------------------------------------------------------------------
b:--------13-----------------13--------------13---------------13---------
g:-----12----------------12---------------12----------------12----------- 4 times.
d:--10-------10-10h12-10---------10-12-10-------10-10h12-10------10-12--- 
a:-----------------------------------------------------------------------
e:-----------------------------------------------------------------------




 Interlude(1)
I just wanna look at you,I just wanna look at you
I just wanna Look at you all day
There ain't nothing wrong,no
There ain't nothing wrong with that

 Interlude(2)
Once you seep in under my skin
there's nothing,there's nothing in this world 
that could wash you away
Once you seep in under my skin
there's nothing,there's nothing in this world 
that could wash you away

 Chorus 2
I'm sorry,so sorry(damn you're so hot)
i want you so bad(damn you're so hot)
It drives me, Yes it drives me(damn you're so hot)
Absolutley insane

 Chorus 
I'd eat you alive!
I'd eat you alive!
I'd eat you alive!
I'd eat you alive!




oh yeah!


Guitar Tabs FROM THE TOP 60 ARTISTS
1.  AC/DC Guitar Tabs
2.  AEROSMITH Guitar Tabs
3.  ALANIS MORISSETTE Guitar Tabs
4.  BEATLES Guitar Tabs
5.  BLINK 182 Guitar Tabs
6.  BOB DYLAN Guitar Tabs
7.  BOB MARLEY Guitar Tabs
8.  BUSH Guitar Tabs
9.  COLDPLAY Guitar Tabs
10.  DAVE MATTHEWS Guitar Tabs
11.  ERIC CLAPTON Guitar Tabs
12.  GRATEFUL Dead Guitar Tabs
13.  GREEN DAY Guitar Tabs
14.  IRON MAIDEN Guitar Tabs
15.  JACK JOHNSON Guitar Tabs
16.  JIMI HENDRIX Guitar Tabs
17.  JOHN MAYER Guitar Tabs
18.  JOHNNY CASH Guitar Tabs
19.  LED ZEPPELIN Guitar Tabs
20.  LIMP BIZKIT Guitar Tabs
21.  METALLICA Guitar Tabs
22.  NEIL YOUNG Guitar Tabs
23.  NIRVANA Guitar Tabs
24.  PEARL JAM Guitar Tabs
25.  PINK FLOYD Guitar Tabs
26.  RADIOHEAD Guitar Tabs
27  RED HOT CHILI PEPPERS Guitar Tabs
28  ROLLING STONES Guitar Tabs
29  STONE TEMPLE PILOTS Guitar Tabs
30  U2 Guitar Tabs
31.  VAN HALEN Guitar Tabs
32.  WEEZER Guitar Tabs