Guitar Resources


My Way (2) (By LIMP BIZKIT)
 
Date: Fri, 1 Jun 2001 14:47:26 -0400
From: Tim Millard <millartj@wilkes1.wilkes.edu>
Subject: l/limp_bizkit/my_way.tab

"My Way" - Limp Bizkit
Taken from the album "Chocolate Starfish and the Hot Dog Flavored Water"
Tabbed by Tim Millard (millartj@wilkes1.wilkes.edu)
Tuning: Db Ab Db Gb Bb Eb

After seeing numerous incorrect tabs for this song, I decided to tab it out 
for myself.  Two weeks later, and here it is.  Everything in here sounds 
correct to me (I'm biased though, duh!), way more than some of the existing 
tabs out there.  You be the judge...

With the exception of the chorus, everything is played with a slight delay 
(flange anyone?)

Intro / Verse:

Eb ------------
Bb ----3-------
Gb ----3--2----
Db -4-----3--4-
Ab -x--------x-
Db -0--------0-

This small fill is tossed in there sometimes...

Eb ----|-8-
Bb -13-|-8-
Gb -12-|---
Db ----|---
Ab ----|---
Db ----|---

They both sound exactly the same...use whatever

Chorus:

Eb -----------------------------------------------------------------------
Bb -7-7-7-7-7-7-7-7-8-8-8-8-10-10-10-10-7-7-7-7-7-7-7-7-8-8-8-8-6-6-6-6-6-
Gb -7-7-7-7-7-7-7-7-7-7-7-7--7--7--7--7-7-7-7-7-7-7-7-7-7-7-7-7-5-5-5-5-5-
Db -----------------------------------------------------------------------
Ab -----------------------------------------------------------------------
Db -----------------------------------------------------------------------

Under the lead riff, another guitar (likely an overdub) plays a D (000xxx) 
and F (333xxx) progression...listen to the song for the exact timing

During the second chorus, play this progression ("Someday you see things my 
way...").  It's probably not exact, but it's the best I could do (listen to 
the CD ya bastard!)...

Eb ---------------------------------------
Bb ---------------------------------------
Gb ---------------------------------------
Db -0-0-X-0-0-X-X-X-X-3-3-0-3-X-0-3-3-0-3-
Ab -0-0-X-0-0-X-X-X-X-3-3-0-3-X-0-3-3-0-3-
Db -0-0-X-0-0-X-X-X-X-3-3-0-3-X-0-3-3-0-3-

Break:

Eb -------------------------------------------------------
Bb -------------------------------------------------------
Gb -----4-----------7-----------9-------------12----------
Db ---2-------5---5-------7---7-------10---10----------12-
Ab -0-------3---3-------5---5-------8----8----------10----
Db -------3-----------5-----------8--------------10-------

After the first fill, play this (this is also the outro)...

Eb -------5----------
Bb -7--8--x--7--8--6-
Gb -7--7--7--7--7--5-
Db -0--5--5--0--5--3-
Ab ------------------
Db ------------------
Guitar Tabs FROM THE TOP 60 ARTISTS
1.  AC/DC Guitar Tabs
2.  AEROSMITH Guitar Tabs
3.  ALANIS MORISSETTE Guitar Tabs
4.  BEATLES Guitar Tabs
5.  BLINK 182 Guitar Tabs
6.  BOB DYLAN Guitar Tabs
7.  BOB MARLEY Guitar Tabs
8.  BUSH Guitar Tabs
9.  COLDPLAY Guitar Tabs
10.  DAVE MATTHEWS Guitar Tabs
11.  ERIC CLAPTON Guitar Tabs
12.  GRATEFUL Dead Guitar Tabs
13.  GREEN DAY Guitar Tabs
14.  IRON MAIDEN Guitar Tabs
15.  JACK JOHNSON Guitar Tabs
16.  JIMI HENDRIX Guitar Tabs
17.  JOHN MAYER Guitar Tabs
18.  JOHNNY CASH Guitar Tabs
19.  LED ZEPPELIN Guitar Tabs
20.  LIMP BIZKIT Guitar Tabs
21.  METALLICA Guitar Tabs
22.  NEIL YOUNG Guitar Tabs
23.  NIRVANA Guitar Tabs
24.  PEARL JAM Guitar Tabs
25.  PINK FLOYD Guitar Tabs
26.  RADIOHEAD Guitar Tabs
27  RED HOT CHILI PEPPERS Guitar Tabs
28  ROLLING STONES Guitar Tabs
29  STONE TEMPLE PILOTS Guitar Tabs
30  U2 Guitar Tabs
31.  VAN HALEN Guitar Tabs
32.  WEEZER Guitar Tabs