Guitar Resources


Nookie (By LIMP BIZKIT)
 
                                    Nookie                                      


                                                                     Limp Bizkit
Wes Borland (Guitar)
Wes uses a 4-string guitar with the low E string replaced with a bass A-string tuned down to F#



                                                                
E ||----------15----------15-----|----------15----------15-----|
B ||-----------------------------|-----------------------------|
F#||----------13----------13-----|----------13----------13-----|
F#||--3/-0--0-----0-3/-0------0--|--3/-0--0-----0-3/-0------0--|


                                                            
----------15----------15-----|----------15----------15-----|
-----------------------------|-----------------------------|
----------13----------13-----|----------13----------13-----|
--3/-0--0-----0-3/-0------0--|--3/-0--0-----0-3/-0------0--|


                                                            
----------15----------15-----|----------15----------15-----|
-----------------------------|-----------------------------|
----------13----------13-----|----------13----------13-----|
--3/-0--0-----0-3/-0------0--|--3/-0--0-----0-3/-0------0--|


                                                            
----------15----------15-----|----------15----------15-----|
-----------------------------|-----------------------------|
----------13----------13-----|----------13----------13-----|
--3/-0--0-----0-3/-0------0--|--3/-0--0-----0-3/-0------0--|


                                                            
----------15----------15-----|----------15----------15-----|
-----------------------------|-----------------------------|
----------13----------13-----|----------13----------13-----|
--3/-0--0-----0-3/-0------0--|--3/-0--0-----0-3/-0------0--|


                                                            
----------15----------15-----|----------15----------15-----|
-----------------------------|-----------------------------|
----------13----------13-----|----------13----------13-----|
--3/-0--0-----0-3/-0------0--|--3/-0--0-----0-3/-0------0--|


                                                                  
--------------------------------|--------------------------------|
--------------------------------|--------------------------------|
--------13-12-----------------0-|--------13-12-----------------0-|
--0-----------12/13-14-12-------|--0-----------12/13-14-12-------|


                                                                  
--------------------------------|--------------------------------|
--------------------------------|--------------------------------|
--------13-12-----------------0-|--------13-12-----------------0-|
--0-----------12/13-14-12-------|--0-----------12/13-14-12-------|


                                                                  
--------------------------------|--------------------------------|
--------------------------------|--------------------------------|
--------13-12-----------------0-|--------13-12-----------------0-|
--0-----------12/13-14-12-------|--0-----------12/13-14-12-------|


                                                                  
--------------------------------|--------------------------------|
--------------------------------|--------------------------------|
--------13-12-----------------0-|--------13-12-----------------0-|
--0-----------12/13-14-12-------|--0-----------12/13-14-12-------|


                                                                                
-----14-----14-----14-----14-----14/15-|-----14-----14-----14-----14-----14/15-|
---------------------------------------|---------------------------------------|
-----12-----12-----12-----12-----12/13-|-----12-----12-----12-----12-----12/13-|
--0-----0-0----0-0----0-0----0-0-------|--0-----0-0----0-0----0-0----0-0-------|


                                                                                
-----14-----14-----14-----14-----14/15-|-----14-----14-----14-----14-----14/15-|
---------------------------------------|---------------------------------------|
-----12-----12-----12-----12-----12/13-|-----12-----12-----12-----12-----12/13-|
--0-----0-0----0-0----0-0----0-0-------|--0-----0-0----0-0----0-0----0-0-------|


                                                                  
--------------------------------|--------------------------------|
--------------------------------|--------------------------------|
--------13-12-----------------0-|--------13-12-----------------0-|
--0-----------12/13-14-12-------|--0-----------12/13-14-12-------|


                                                                  
--------------------------------|--------------------------------|
--------------------------------|--------------------------------|
--------13-12-----------------0-|--------13-12-----------------0-|
--0-----------12/13-14-12-------|--0-----------12/13-14-12-------|


                                                                  
--------------------------------|--------------------------------|
--------------------------------|--------------------------------|
--------13-12-----------------0-|--------13-12-----------------0-|
--0-----------12/13-14-12-------|--0-----------12/13-14-12-------|


                                                                  
--------------------------------|--------------------------------|
--------------------------------|--------------------------------|
--------13-12-----------------0-|--------13-12-----------------0-|
--0-----------12/13-14-12-------|--0-----------12/13-14-12-------|


                                                            
----------15----------15-----|----------15----------15-----|
-----------------------------|-----------------------------|
----------13----------13-----|----------13----------13-----|
--3/-0--0-----0-3/-0------0--|--3/-0--0-----0-3/-0------0--|


                                                            
----------15----------15-----|----------15----------15-----|
-----------------------------|-----------------------------|
----------13----------13-----|----------13----------13-----|
--3/-0--0-----0-3/-0------0--|--3/-0--0-----0-3/-0------0--|


                                                            
----------15----------15-----|----------15----------15-----|
-----------------------------|-----------------------------|
----------13----------13-----|----------13----------13-----|
--3/-0--0-----0-3/-0------0--|--3/-0--0-----0-3/-0------0--|


                                                            
----------15----------15-----|----------15----------15-----|
-----------------------------|-----------------------------|
----------13----------13-----|----------13----------13-----|
--3/-0--0-----0-3/-0------0--|--3/-0--0-----0-3/-0------0--|


                                                                  
--------------------------------|--------------------------------|
--------------------------------|--------------------------------|
--------13-12-----------------0-|--------13-12-----------------0-|
--0-----------12/13-14-12-------|--0-----------12/13-14-12-------|


                                                                  
--------------------------------|--------------------------------|
--------------------------------|--------------------------------|
--------13-12-----------------0-|--------13-12-----------------0-|
--0-----------12/13-14-12-------|--0-----------12/13-14-12-------|


                                                                  
--------------------------------|--------------------------------|
--------------------------------|--------------------------------|
--------13-12-----------------0-|--------13-12-----------------0-|
--0-----------12/13-14-12-------|--0-----------12/13-14-12-------|


                                                                  
--------------------------------|--------------------------------|
--------------------------------|--------------------------------|
--------13-12-----------------0-|--------13-12-----------------0-|
--0-----------12/13-14-12-------|--0-----------12/13-14-12-------|


                                                                                
-----14-----14-----14-----14-----14/15-|-----14-----14-----14-----14-----14/15-|
---------------------------------------|---------------------------------------|
-----12-----12-----12-----12-----12/13-|-----12-----12-----12-----12-----12/13-|
--0-----0-0----0-0----0-0----0-0-------|--0-----0-0----0-0----0-0----0-0-------|


                                                                                
-----14-----14-----14-----14-----14/15-|-----14-----14-----14-----14-----14/15-|
---------------------------------------|---------------------------------------|
-----12-----12-----12-----12-----12/13-|-----12-----12-----12-----12-----12/13-|
--0-----0-0----0-0----0-0----0-0-------|--0-----0-0----0-0----0-0----0-0-------|


                                                            
----------15----------15-----|----------15----------15-----|
-----------------------------|-----------------------------|
----------13----------13-----|----------13----------13-----|
--3/-0--0-----0-3/-0------0--|--3/-0--0-----0-3/-0------0--|


                                                            
----------15----------15-----|----------15----------15-----|
-----------------------------|-----------------------------|
----------13----------13-----|----------13----------13-----|
--3/-0--0-----0-3/-0------0--|--3/-0--0-----0-3/-0------0--|


                                                            
----------15----------15-----|----------15----------15-----|
-----------------------------|-----------------------------|
----------13----------13-----|----------13----------13-----|
--3/-0--0-----0-3/-0------0--|--3/-0--0-----0-3/-0------0--|


                                                            
----------15----------15-----|----------15----------15-----|
-----------------------------|-----------------------------|
----------13----------13-----|----------13----------13-----|
--3/-0--0-----0-3/-0------0--|--3/-0--0-----0-3/-0------0--|


                                                                
-------------------------------|-------------------------------|
-------------------------------|-------------------------------|
--0-------0--------0-----0-----|--0-------0--------0-----0-----|
-----0--0----0-0-0---0-0---0-0-|-----0--0----0-0-0---0-0---0-0-|


                                
-------------------------------|
-------------------------------|
--0-------0--------0-----0-----|
-----0--0----0-0-0---0-0---0-0-|


                                                   
--------------------------------------------------|
--------------------------------------------------|
--10-10-10-10-10-10-10-10/15-15-15-15-15\13-13-13-|
--10-10-10-10-10-10-10-10/15-15-15-15-15\13-13-13-|


                                                                
-------------------------------|-------------------------------|
-------------------------------|-------------------------------|
--0-------0--------0-----0-----|--0-------0--------0-----0-----|
-----0--0----0-0-0---0-0---0-0-|-----0--0----0-0-0---0-0---0-0-|


                                
-------------------------------|
-------------------------------|
--0-------0--------0-----0-----|
-----0--0----0-0-0---0-0---0-0-|


                                                   
--------------------------------------------------|
--------------------------------------------------|
--10-10-10-10-10-10-10-10/15-15-15-15-15\13-13-13-|
--10-10-10-10-10-10-10-10/15-15-15-15-15\13-13-13-|


                                                                
-------------------------------|-------------------------------|
-------------------------------|-------------------------------|
--0-------0--------0-----0-----|--0-------0--------0-----0-----|
-----0--0----0-0-0---0-0---0-0-|-----0--0----0-0-0---0-0---0-0-|


                                
-------------------------------|
-------------------------------|
--0-------0--------0-----0-----|
-----0--0----0-0-0---0-0---0-0-|


                                                   
--------------------------------------------------|
--------------------------------------------------|
--10-10-10-10-10-10-10-10/15-15-15-15-15\13-13-13-|
--10-10-10-10-10-10-10-10/15-15-15-15-15\13-13-13-|


                                                                
-------------------------------|-------------------------------|
-------------------------------|-------------------------------|
--0-------0--------0-----0-----|--0-------0--------0-----0-----|
-----0--0----0-0-0---0-0---0-0-|-----0--0----0-0-0---0-0---0-0-|


                                
-------------------------------|
-------------------------------|
--0-------0--------0-----0-----|
-----0--0----0-0-0---0-0---0-0-|


                                                   
--------------------------------------------------|
--------------------------------------------------|
--10-10-10-10-10-10-10-10/15-15-15-15-15\13-13-13-|
--10-10-10-10-10-10-10-10/15-15-15-15-15\13-13-13-|


                                                                          
-----14--x-14-x-x-14--x-14--x-14/15-|-----14--x-14-x-x-14--x-14--x-14/15-|
---------x----x-x-----x-----x-------|---------x----x-x-----x-----x-------|
-----12--x-12-x-x-12--x-12--x-12/13-|-----12--x-12-x-x-12--x-12--x-12/13-|
--0---------------------------------|--0---------------------------------|


                                                                          
-----14--x-14-x-x-14--x-14--x-14/15-|-----14--x-14-x-x-14--x-14--x-14/15-|
---------x----x-x-----x-----x-------|---------x----x-x-----x-----x-------|
-----12--x-12-x-x-12--x-12--x-12/13-|-----12--x-12-x-x-12--x-12--x-12/13-|
--0---------------------------------|--0---------------------------------|


                                                                          
-----14--x-14-x-x-14--x-14--x-14/15-|-----14--x-14-x-x-14--x-14--x-14/15-|
---------x----x-x-----x-----x-------|---------x----x-x-----x-----x-------|
-----12--x-12-x-x-12--x-12--x-12/13-|-----12--x-12-x-x-12--x-12--x-12/13-|
--0---------------------------------|--0---------------------------------|


                                                                          
-----14--x-14-x-x-14--x-14--x-14/15-|-----14--x-14-x-x-14--x-14--x-14/15-|
---------x----x-x-----x-----x-------|---------x----x-x-----x-----x-------|
-----12--x-12-x-x-12--x-12--x-12/13-|-----12--x-12-x-x-12--x-12--x-12/13-|
--0---------------------------------|--0---------------------------------|


                                                                          
-----14--x-14-x-x-14--x-14--x-14/15-|-----14--x-14-x-x-14--x-14--x-14/15-|
---------x----x-x-----x-----x-------|---------x----x-x-----x-----x-------|
-----12--x-12-x-x-12--x-12--x-12/13-|-----12--x-12-x-x-12--x-12--x-12/13-|
--0---------------------------------|--0---------------------------------|


                                                                          
-----14--x-14-x-x-14--x-14--x-14/15-|-----14--x-14-x-x-14--x-14--x-14/15-|
---------x----x-x-----x-----x-------|---------x----x-x-----x-----x-------|
-----12--x-12-x-x-12--x-12--x-12/13-|-----12--x-12-x-x-12--x-12--x-12/13-|
--0---------------------------------|--0---------------------------------|


                                                            
----------15----------15-----|----------15----------15-----|
-----------------------------|-----------------------------|
----------13----------13-----|----------13----------13-----|
--3/-0--0-----0-3/-0------0--|--3/-0--0-----0-3/-0------0--|


                                                            
----------15----------15-----|----------15----------15-----|
-----------------------------|-----------------------------|
----------13----------13-----|----------13----------13-----|
--3/-0--0-----0-3/-0------0--|--3/-0--0-----0-3/-0------0--|


                                                            
----------15----------15-----|----------15----------15-----|
-----------------------------|-----------------------------|
----------13----------13-----|----------13----------13-----|
--3/-0--0-----0-3/-0------0--|--3/-0--0-----0-3/-0------0--|


                                                            
----------15----------15-----|----------15----------15-----|
-----------------------------|-----------------------------|
----------13----------13-----|----------13----------13-----|
--3/-0--0-----0-3/-0------0--|--3/-0--0-----0-3/-0------0--|


                                                               
-----14-----14-----14-----14-----14/15-|----------------------|
---------------------------------------|----------------------|
-----12-----12-----12-----12-----12/13-|----------------------|
--0-----0-0----0-0----0-0----0-0-------|--10--12--------------|


                                                                   
-----14-----14-----14-----14-----14/15-|--------------------------|
---------------------------------------|--------------------------|
-----12-----12-----12-----12-----12/13-|--------------------------|
--0-----0-0----0-0----0-0----0-0-------|--10--12------10--12------|


                                                               
-----14-----14-----14-----14-----14/15-|----------------------|
---------------------------------------|----------------------|
-----12-----12-----12-----12-----12/13-|----------------------|
--0-----0-0----0-0----0-0----0-0-------|--10--12--------------|


                                                                   
-----14-----14-----14-----14-----14/15-|--------------------------|
---------------------------------------|--------------------------|
-----12-----12-----12-----12-----12/13-|--------------------------|
--0-----0-0----0-0----0-0----0-0-------|--10--12------10--12------|


                                                               
-----14-----14-----14-----14-----14/15-|----------------------|
---------------------------------------|----------------------|
-----12-----12-----12-----12-----12/13-|----------------------|
--0-----0-0----0-0----0-0----0-0-------|--10--12--------------|


                                                                   
-----14-----14-----14-----14-----14/15-|--------------------------|
---------------------------------------|--------------------------|
-----12-----12-----12-----12-----12/13-|--------------------------|
--0-----0-0----0-0----0-0----0-0-------|--10--12------10--12------|


                                                               
-----14-----14-----14-----14-----14/15-|----------------------|
---------------------------------------|----------------------|
-----12-----12-----12-----12-----12/13-|----------------------|
--0-----0-0----0-0----0-0----0-0-------|--10--12--------------|


                                                                    
-----14-----14-----14-----14-----14/15-|--------------------------||
---------------------------------------|--------------------------||
-----12-----12-----12-----12-----12/13-|--------------------------||
--0-----0-0----0-0----0-0----0-0-------|--10--12------10--12------||


Guitar Tabs FROM THE TOP 60 ARTISTS
1.  AC/DC Guitar Tabs
2.  AEROSMITH Guitar Tabs
3.  ALANIS MORISSETTE Guitar Tabs
4.  BEATLES Guitar Tabs
5.  BLINK 182 Guitar Tabs
6.  BOB DYLAN Guitar Tabs
7.  BOB MARLEY Guitar Tabs
8.  BUSH Guitar Tabs
9.  COLDPLAY Guitar Tabs
10.  DAVE MATTHEWS Guitar Tabs
11.  ERIC CLAPTON Guitar Tabs
12.  GRATEFUL Dead Guitar Tabs
13.  GREEN DAY Guitar Tabs
14.  IRON MAIDEN Guitar Tabs
15.  JACK JOHNSON Guitar Tabs
16.  JIMI HENDRIX Guitar Tabs
17.  JOHN MAYER Guitar Tabs
18.  JOHNNY CASH Guitar Tabs
19.  LED ZEPPELIN Guitar Tabs
20.  LIMP BIZKIT Guitar Tabs
21.  METALLICA Guitar Tabs
22.  NEIL YOUNG Guitar Tabs
23.  NIRVANA Guitar Tabs
24.  PEARL JAM Guitar Tabs
25.  PINK FLOYD Guitar Tabs
26.  RADIOHEAD Guitar Tabs
27  RED HOT CHILI PEPPERS Guitar Tabs
28  ROLLING STONES Guitar Tabs
29  STONE TEMPLE PILOTS Guitar Tabs
30  U2 Guitar Tabs
31.  VAN HALEN Guitar Tabs
32.  WEEZER Guitar Tabs