Guitar Resources


Pollution (By LIMP BIZKIT)
 
SONG: Pollution
BAND: Limp Bizkit
ALBUM: Three Dollar Bill Y'All
TABBED: Kev Short - kevshort@ntlworld.com

I hate the new style of Limp, so I think more stuff from their first album should go up. 
Wes plays this with a 7 string guitar, so the closest thing to do is tune to a drop D.

Distort this whole thing.

TAB EXPLAINED:
b = Full Bend
PM = Palm Mute where the . are

INTRO
This is played quietly.
E[--------------------------------------]
B[--------------------------------------]
G[--------------------------------------]
D[--------------------------------------]
A[--------------------------------------]
D[-2-0-3b-0-2-0-2-0-3b-0-2-0-2b-0-2-0-2b]

CHORUS
Same timing as the intro but alot louder.
E[--------------------------------------]
B[--------------------------------------]
G[--------------------------------------]
D[--------------------------------------]
A[-2-0-3b-0-2-0-2-0-3b-0-2-0-2b-0-2-0-2b]
D[-2-0-3b-0-2-0-2-0-3b-0-2-0-2b-0-2-0-2b]

VERSE
Play exactly the same timing as the intro. 
The second verse is the intro played with 
a wah wah peddle and a higher volume than the intro.

E[--------------------------------------]
B[--------------------------------------]
G[--------------------------------------]
D[--------------------------------------]
A[--------------------------------------]
D[-2-0-3b-0-2-0-2-0-3b-0-2-0-2b-0-2-0-2b]
PM. .    . . . . .    . . .    . . .

BRIDGE
Just before the chorus.
E[--------------------]
B[--------------------]
G[--------------------]
D[--------------------]
A[--6b--0-7b--0-5-0---]
D[--6b--0-7b--0-5-0---]

RIFF
When Fred shouts "BRING THAT BEAT BACK!" this starts playing to the end. 
Do alot of pick scratching, I recomend playing with the rounded part of 
the pick and letting it scratch near the pick ups when you hit the strings.

E[-------------------------]
B[-------------------------]
G[-------------------------]
D[-------------------------]
A[--2-0-2-0-4-000-2-0-2-0-4]
D[--2-0-2-0-4-000-2-0-2-0-4]
PM            ...
Guitar Tabs FROM THE TOP 60 ARTISTS
1.  AC/DC Guitar Tabs
2.  AEROSMITH Guitar Tabs
3.  ALANIS MORISSETTE Guitar Tabs
4.  BEATLES Guitar Tabs
5.  BLINK 182 Guitar Tabs
6.  BOB DYLAN Guitar Tabs
7.  BOB MARLEY Guitar Tabs
8.  BUSH Guitar Tabs
9.  COLDPLAY Guitar Tabs
10.  DAVE MATTHEWS Guitar Tabs
11.  ERIC CLAPTON Guitar Tabs
12.  GRATEFUL Dead Guitar Tabs
13.  GREEN DAY Guitar Tabs
14.  IRON MAIDEN Guitar Tabs
15.  JACK JOHNSON Guitar Tabs
16.  JIMI HENDRIX Guitar Tabs
17.  JOHN MAYER Guitar Tabs
18.  JOHNNY CASH Guitar Tabs
19.  LED ZEPPELIN Guitar Tabs
20.  LIMP BIZKIT Guitar Tabs
21.  METALLICA Guitar Tabs
22.  NEIL YOUNG Guitar Tabs
23.  NIRVANA Guitar Tabs
24.  PEARL JAM Guitar Tabs
25.  PINK FLOYD Guitar Tabs
26.  RADIOHEAD Guitar Tabs
27  RED HOT CHILI PEPPERS Guitar Tabs
28  ROLLING STONES Guitar Tabs
29  STONE TEMPLE PILOTS Guitar Tabs
30  U2 Guitar Tabs
31.  VAN HALEN Guitar Tabs
32.  WEEZER Guitar Tabs