Guitar Resources


Take A Look Around 2 (By LIMP BIZKIT)
 
***********************************Take a look around***********************************

Submitted by class_a_nutter@yahoo.co.uk

The notes on this tab are 100% perfect. I haven't seen any place on the web where 
they got the right tuning. The only thing that might be wrong is some of the rhythm
 but you can get that from the CD. I am sure about the chorus rhythm though.   

6= down to C#
5= down to F#
4= down to B
3= G
2= B
1= E

Once you have tuned the bottom three down you will then have to retune the top three 
and doing that will knock out the bottom three again. Eventually you will get there.
 So DO THE TUNING WELL!!!

Verse-First Riff-Clean Neck pick up-first time x8 and x2 in gap/second time x2/
----------------------------------------------------------------------------------------
----------------------------------------------------------------------------------------
----------------------------------------------------------------------------------------
------------------7h9p7-----------------------------------------------------------------
---9--9--9--9--9---------9--9--9--9--9-7--8---------------------------------------------
----------------------------------------------------------------------------------------


Verse-High bit-Clean x4 gap between times 2 and 3
-14--11----------14--11---------14--11-------14--11-------------------------------------
--------11---------------10-------------9------------12--12--12--12--12--12--11---------
----------------------------------------------------------------------------------------
----------------------------------------------------------------------------------------
----------------------------------------------------------------------------------------
----------------------------------------------------------------------------------------


Pre Chorus-Distortion x4
----------------------------------------------------------------------------------------
----------------------------------------------------------------------------------------
----------------------------------------------------------------------------------------
----------------------------------------------------------------------------------------
----------------------------------------------------------------------------------------
-0-2--0-2--0-2--0-2--5-7--0-2--0-2--0-2--0-2--0-1---------------------------------------



chorus- heavy Distortion (you can play the mutes as chords)(ignore any extra spaces between
 down and up strums at the bottom) x4
----------------------------------------------------------------------------------------
----------------------------------------------------------------------------------------
----------------------------------------------------------------------------------------
--4-4-x-4-x-4-x-4-7-9-4-4-x-4-x-4-x-4-2-3-----------------------------------------------
--4-4-x-4-x-4-x-4-7-9-4-4-x-4-x-4-x-4-2-3-----------------------------------------------
--2-2-x-2-x-2-x-2-5-7-2-2-x-2-x-2-x-2-0-1-----------------------------------------------
  d u d u d u d u d d d u d u d u d u d d


Different rhythm chorus
----------------------------------------------------------------------------------------
----------------------------------------------------------------------------------------
----------------------------------------------------------------------------------------
--4-4-7-9-4-4-2-3-4-4-7-9-4-4-2-3-------------------------------------------------------
--4-4-7-9-4-4-2-3-4-4-7-9-4-4-2-3-------------------------------------------------------
--2-2-5-7-2-2-0-1-2-2-5-7-2-2-0-1-------------------------------------------------------



Bridge - Played with Delay (I think) x11
----------------------------------------------------------------------------------------
----------------------------------------------------------------------------------------
----------------------------------------------------------------------------------------
--------7h9p7---------------------------------------------------------------------------
--9--9---------9--9-7--8----------------------------------------------------------------
----------------------------------------------------------------------------------------

12th time on the bridge
----------------------------------------------------------------------------------------
----------------------------------------------------------------------------------------
----------------------------------------------------------------------------------------
--------7h9p7---------------------------------------------------------------------------
--9--9---------bu9-(slow bend)----------------------------------------------------------
----------------------------------------------------------------------------------------

Order to play. 

Verse 
Pre chorus
Chorus
Verse
Pre chorus
Chorus
Different rhythm chorus
Bridge + 12th time bridge bit.
Chorus
High Riff until end.


Guitar Tabs FROM THE TOP 60 ARTISTS
1.  AC/DC Guitar Tabs
2.  AEROSMITH Guitar Tabs
3.  ALANIS MORISSETTE Guitar Tabs
4.  BEATLES Guitar Tabs
5.  BLINK 182 Guitar Tabs
6.  BOB DYLAN Guitar Tabs
7.  BOB MARLEY Guitar Tabs
8.  BUSH Guitar Tabs
9.  COLDPLAY Guitar Tabs
10.  DAVE MATTHEWS Guitar Tabs
11.  ERIC CLAPTON Guitar Tabs
12.  GRATEFUL Dead Guitar Tabs
13.  GREEN DAY Guitar Tabs
14.  IRON MAIDEN Guitar Tabs
15.  JACK JOHNSON Guitar Tabs
16.  JIMI HENDRIX Guitar Tabs
17.  JOHN MAYER Guitar Tabs
18.  JOHNNY CASH Guitar Tabs
19.  LED ZEPPELIN Guitar Tabs
20.  LIMP BIZKIT Guitar Tabs
21.  METALLICA Guitar Tabs
22.  NEIL YOUNG Guitar Tabs
23.  NIRVANA Guitar Tabs
24.  PEARL JAM Guitar Tabs
25.  PINK FLOYD Guitar Tabs
26.  RADIOHEAD Guitar Tabs
27  RED HOT CHILI PEPPERS Guitar Tabs
28  ROLLING STONES Guitar Tabs
29  STONE TEMPLE PILOTS Guitar Tabs
30  U2 Guitar Tabs
31.  VAN HALEN Guitar Tabs
32.  WEEZER Guitar Tabs