Guitar Resources


Another Brick In The Wall (By PINK FLOYD)
 
Another Brick in the Wall - Pink Floyd


I saw a request for this ages ago. Never had the time to write it out, but
here it is. Since I am a beginning guitar player (my first year), there are
bound to be a lot of mistakes in this tab. Also, I am not good at timings
etc. so I advice you not to pay too much attention at the beats shown. Just
listen to the music and use this tab as a reference. Some small things to 
look out for in the solo. The b means bending a string upwards, h is a
hammer-on, and p means pull-off. So if you see 13h15b it means you play the
13th fret, hammer-on to 15, and then bend 15 upwards. Also ~~ means vibrato.
At one point you will note the use of 13x and 14x in the solo. What I mean
by that is that these notes are played, but don't press the strings onto the
fretboard. Just let your fingers rest on the string at these postions. 
Anyone got a clue how to call such a technique? If anyone is able to come up
with a (better or other) version of this great song then I would be greatly
interested. And now .........


                    Another Brick in the Wall part II
              
                                   by  
            
                                Pink floyd

Run1
E 10--8---10-10-10|-8--8-7-7-------|
B 10--8---10-10-10|-8--8-8-8-------|
G 10--9---10-10-10|-9--9-7-7-------|
D ----------------|----------------|
A ----------------|----------------|
E ----------------|----------------|
  ^ . ^ . ^ . ^ .  ^ . ^ . ^ . ^ .  

Run2
E 10--8---10-10-10|-8-8-8-7--7-5---|
B 10--8---10-10-10|-8-8-8-8--8-6---|
G 10--9---10-10-10|-9-9-9-7--7-5---|
D ----------------|----------------|
A ----------------|----------------|
E ----------------|----------------|
  ^ . ^ . ^ . ^ .  ^ . ^ . ^ . ^ .  

The verses are simple. Just a Dmin chord, listen to the music to get the
funky rythem going.

Dmin
we don't need no education

Dmin
we don't need no fought control

.....

Dmin                               Dmin Run1
hey teacher, leave those kids alone         

Fmaj7                  C                     Dmin
all in all it's just a - nother brick in the wall   

Fmaj7                  C                     Dmin Break
all in all it's just a - nother brick in the wall      

repeat first verse now ending with :

Dmin                               Dmin Run2
hey teacher, leave those kids alone    

Now a great solo which makes you want to learn how to play guitar 
desperately when you hear this..........
B

Chords:

     +-+-+-+-+-+    +-+-+-+-+-+    +-+-+-+-+-+    +-+-+-+-+-+
  5  x o o o o o  3 o o o o o o  1 o o o o o o  5 o o o o o o
     +-+-+-+-+-+    +-+-+-+-+-+    +-+-+-+-+-+    +-+-+-+-+-+
  6  | | | | o |  4 | | | o | |  2 | | | o | |  6 | | | | | |
     +-+-+-+-+-+    +-+-+-+-+-+    +-+-+-+-+-+    +-+-+-+-+-+
  7  | | o o | |  5 | o o | | |  3 | o o | | |  7 | o o | | |
     +-+-+-+-+-+    +-+-+-+-+-+    +-+-+-+-+-+    +-+-+-+-+-+
       Dm (V)            G             F               Am

     +-+-+-+-+-+    +-+-+-+-+-+    +-+-+-+-+-+    +-+-+-+-+-+
   1 | | | | o | 10 o o o o o o  8 o o o o o o  1 o o o o o o
     +-+-+-+-+-+    +-+-+-+-+-+    +-+-+-+-+-+    +-+-+-+-+-+
   2 | | o | | | 11 | | | | | |  9 | | | o | |  2 | | | | | |
     +-+-+-+-+-+    +-+-+-+-+-+    +-+-+-+-+-+    +-+-+-+-+-+
   3 | o | | | | 12 | o o | | | 10 | o o | | |  3 | | o o o |
     +-+-+-+-+-+    +-+-+-+-+-+    +-+-+-+-+-+    +-+-+-+-+-+
          C           Dm (X)         C (VIII)         Bb   





Words:
 
Dm(v)
We  don't   need   no   education,

Dm(v)
We  don't  need no thought control,

Dm(v)
No dark sarcasm in the classroom.

Dm(v)                          G  
Teacher leave them kids alone.

G                                      <Fill #1>
Hey, Teacher!  Leave them kids alone.
 
F                        C                       Dm(v) <Fill #2>
All in all it's just an - other brick in the wall.


F                         C                       Dm(v)
All in all it's just an - other brick in the wall.

Play 2 times



Fill #1:

Dm(x)     C(vii) Dm(x)        Dm(v)       Am       G     F
  /       /      /   //       /   /       / / /    /     /

Fill #2:

Dm(v)     Am       G    F
/   /     / / /    /    /

Solo:

The guitar solo is played over the same bass line as the verse,
but the keyboards hold down some different chords which are
fairly subtle but really add to the feel of the piece.

NB: This solo by David Gilmour is quite modular in its structure
so I haven't really arranged it in bars, rather it's just the tab
of the phrases played.  


|-------------------------10---------------------------------
|-13-p-10----10--------10----13b(15)--------------10-10-10---
|---------12----12b(14)---------------------------10-10-10---
|------------------------------------------------------------
|------------------------------------------------------------
|------------------------------------------------------------


|------------------------------------------------------------
|-13--b(15)-b(17)-rb(13)-------13-p-10----10-----------------
|--------------------------------------12--------------------
|------------------------------------------------------------
|------------------------------------------------------------
|------------------------------------------------------------


|------------------------------------------------------------
|------------------------------------------------------------
|-10-\-9 ---9---------12-------------------------------------
|--------12---10-/-12----12----------------------------------
|------------------------------------------------------------
|------------------------------------------------------------


|------------------------------------------------------------
|--10----------10--10------10--10------10--12--10------------
|--10----------10--10------10--10------10--12--10------------
|-----12--12-----------12----------12------------------------
|------------------------------------------------------------
|------------------------------------------------------------
                          
|-------13b(15)-13-13----------------------------------------
|-----x------------------13b(15)b(17)b(18)-rb(15)b(17)-------
|---x--------------------------------------------------------
|-x----------------------------------------------------------
|------------------------------------------------------------
|------------------------------------------------------------
                                                       cont..
|-------10---------------------------------------------------
|----10----13p10---------------------------------------------
|-12-------------12--b(14)rb(12)-p-10---12-p-10-------10-----
|-----------------------------------------------12-------12--
|------------------------------------------------------------
|------------------------------------------------------------


|------------------------------------------------------------
|------------------------------------------------------------
|--12--10----------------------------------------------------
|--12--10----------------------------------------------------
|----------12--10---10--8--------------------8---------------
|--------------------------10p8-----10--10-----10p8--10------


|------------------------------------------------------------
|-----------------5h6p5--------------------------6b(8)-------
|---------5--7---------7---7-p-5------5--5--7p5--------------
|----/7--------------------------7---------------------------
|------------------------------------------------------------
|------------------------------------------------------------


|-------------------------------------15b(17)-13-------------
|--13b(15)---13b(15)b(17)rb(13)------------------15----------
|------------------------------------------------------------
|------------------------------------------------------------
|------------------------------------------------------------
|------------------------------------------------------------

|-----13-----15b(17)rb(15)b(17)rb(15)b(17)rb(15)----15b(17)--
|-/15----15-------------------------------------15---------15
|------------------------------------------------------------
|------------------------------------------------------------
|------------------------------------------------------------
|------------------------------------------------------------

|--18b(20)--(20)---20b(22)---20-p-17---20-p-17---------------
|------------------------------------------------------------
|------------------------------------------------------------
|------------------------------------------------------------
|------------------------------------------------------------
|------------------------------------------------------------

|------------------------------------------------------------
|-------------------------------------------12--12---10------
|-10--10--10----------------------12--10----12--12---10------
|-------------12------------------12--10------------(10)-----
|----------------------10-10-10------------------------------
|------------------------------------------------------------







|------------------------------------------------------------
|--x--x--10--------------------------------------------------
|--x--x--10---x--x-------------------------------------------
|-------------------12---------------------------------------
|---------------------------------10---8---10---8------------
|---------------------------------------------------10-------


Keyboard:

NB: the chords are held down - the beats shown are just to
establish timing.


 | Dm /  /  /  | /  /  /  C |   x8

 | G  /  /  /  | /  /  /  / | Dm /  /  /  | /  /  /  /| x2

 | C  /  /  /  | /  /  /  / |

 | Bb /  /  /  | /  /  /  / |

 | C  /  /  /  | /  /  /  / |

 | no chord    ||end of solo


Key:

 -15b(17)-  => bend from 15th fret (whole step).

 -(17)rb(15) =>release bend (back to 15th)

 -15-h-17- => hammer-on.

 -17-p-15- => pull-off.

 -17-\-15- , -15-/-17-  => slide (down and up respectively).

 -x- rake or just pick scrape.
Guitar Tabs FROM THE TOP 60 ARTISTS
1.  AC/DC Guitar Tabs
2.  AEROSMITH Guitar Tabs
3.  ALANIS MORISSETTE Guitar Tabs
4.  BEATLES Guitar Tabs
5.  BLINK 182 Guitar Tabs
6.  BOB DYLAN Guitar Tabs
7.  BOB MARLEY Guitar Tabs
8.  BUSH Guitar Tabs
9.  COLDPLAY Guitar Tabs
10.  DAVE MATTHEWS Guitar Tabs
11.  ERIC CLAPTON Guitar Tabs
12.  GRATEFUL Dead Guitar Tabs
13.  GREEN DAY Guitar Tabs
14.  IRON MAIDEN Guitar Tabs
15.  JACK JOHNSON Guitar Tabs
16.  JIMI HENDRIX Guitar Tabs
17.  JOHN MAYER Guitar Tabs
18.  JOHNNY CASH Guitar Tabs
19.  LED ZEPPELIN Guitar Tabs
20.  LIMP BIZKIT Guitar Tabs
21.  METALLICA Guitar Tabs
22.  NEIL YOUNG Guitar Tabs
23.  NIRVANA Guitar Tabs
24.  PEARL JAM Guitar Tabs
25.  PINK FLOYD Guitar Tabs
26.  RADIOHEAD Guitar Tabs
27  RED HOT CHILI PEPPERS Guitar Tabs
28  ROLLING STONES Guitar Tabs
29  STONE TEMPLE PILOTS Guitar Tabs
30  U2 Guitar Tabs
31.  VAN HALEN Guitar Tabs
32.  WEEZER Guitar Tabs