Guitar Resources


Dogs Solo (By PINK FLOYD)
 
Date: Sat, 26 Aug 2000 22:05:28 -0400
From: "shaddon waldie" <s_waldie@hotmail.com>
Subject: p/pink_floyd/dogs_solo.tab


Dogs by Pink Floyd
Music by R.Waters/D.Gilmour
>From the album Animals

Here's my interpretation of the first solo in Dogs, not a hard
solo to play but some of the timings are tricky and the little
touches (vibrato etc) are what makes it. Listen to the record
and you'll catch the drift.

Tab legend:
/  slide
b  bend
r  release
~  vibrato
.  staccato
() note sounds but not played

  Dm9
E-------.-------.------------------.--.--.--.---------------
B/17~~-17b(18)-17-17-15-15----XX-13-13-12-10---------------
G------------------------------XX-------------/12-10-9-7~~~-
D-----------------------------------------------------------
A-----------------------------------------------------------
E-----------------------------------------------------------

                    Bbadd4
E-----------------------------------------------------------
B----------------------------------.---------------/18~~-17-
G-7-9-10p9p7-9p7--------/7-----10-10b(12)-10-10~~~----------
D----------------10-8~~----8-8------------------------------
A-----------------------------------------------------------
E-----------------------------------------------------------

                          E7sus4
E--------------.--.--.--.-----------------------------------
B-15~~-XX-/18-17-15-13-10-----------------------------------
G------XX-----------------12b(14)~~~-12-10-9~~---9h10p9-----
D-----------------------------------------------------------
A-----------------------------------------------------------
E-----------------------------------------------------------


E-----------------------------------------------------------
B------------------------------XX---------------------------
G----9~~~----------9~----------XX-/6-6--/7-7--/9-9--/11-11--
D-12------12-11-12----7-7~~~--------------------------------
A-----------------------------------------------------------
E-----------------------------------------------------------


                                 Ebmaj7sus4
E-----------------------------------------------------------
B--------/10-10--/11-11--/12-12--13~~--12-11~~--------------
G-/12-12----------------------------------------13-12~~-----
D-----------------------------------------------------------
A-----------------------------------------------------------
E-----------------------------------------------------------


E-----------------.--.------.--.----------------------------
B------------/18-17-16--15-13-12-11-10----------------------
G-10-10~~~~~--------------------------13-12-10--------------
D-----------------------------------------------------------
A-----------------------------------------------------------
E-----------------------------------------------------------

  Dm9
E-----------------------------------------------------------
B-----------------------------------------------------------
G-10b(12)~~~~~~~10b(12)r(10)b(12)r(10)p9~~~~~~--------------
D-----------------------------------------------------------
A-----------------------------------------------------------
E-----------------------------------------------------------
Guitar Tabs FROM THE TOP 60 ARTISTS
1.  AC/DC Guitar Tabs
2.  AEROSMITH Guitar Tabs
3.  ALANIS MORISSETTE Guitar Tabs
4.  BEATLES Guitar Tabs
5.  BLINK 182 Guitar Tabs
6.  BOB DYLAN Guitar Tabs
7.  BOB MARLEY Guitar Tabs
8.  BUSH Guitar Tabs
9.  COLDPLAY Guitar Tabs
10.  DAVE MATTHEWS Guitar Tabs
11.  ERIC CLAPTON Guitar Tabs
12.  GRATEFUL Dead Guitar Tabs
13.  GREEN DAY Guitar Tabs
14.  IRON MAIDEN Guitar Tabs
15.  JACK JOHNSON Guitar Tabs
16.  JIMI HENDRIX Guitar Tabs
17.  JOHN MAYER Guitar Tabs
18.  JOHNNY CASH Guitar Tabs
19.  LED ZEPPELIN Guitar Tabs
20.  LIMP BIZKIT Guitar Tabs
21.  METALLICA Guitar Tabs
22.  NEIL YOUNG Guitar Tabs
23.  NIRVANA Guitar Tabs
24.  PEARL JAM Guitar Tabs
25.  PINK FLOYD Guitar Tabs
26.  RADIOHEAD Guitar Tabs
27  RED HOT CHILI PEPPERS Guitar Tabs
28  ROLLING STONES Guitar Tabs
29  STONE TEMPLE PILOTS Guitar Tabs
30  U2 Guitar Tabs
31.  VAN HALEN Guitar Tabs
32.  WEEZER Guitar Tabs