Guitar Resources


Is There Anybody Out There (By PINK FLOYD)
 
From: Paul Zimmerman <AUDSM@asuvm.inre.asu.edu>

Is There Anybody Out There? 1


			IS THERE ANYBODY OUT THERE
				PINK FLOYD
				 THE WALL

|-------0--------|------0----------|------0---------|------0----------|
|-----1---1------|-----1---1-------|----1---1-------|----1---1--------|
|---2------2---2-|---2-------2---2-|---2------2---2-|---2-------2---2-|
|-2----------2---|-3-----------3---|-4----------4---|-3-----------3---|
|----------------|-----------------|----------------|-----------------|
|----------------|-----------------|----------------|-----------------|


|-------0--------0-|-------0-------0-|---------0-------|-----------------|
|-----1--------1---|-----1-------1---|-------1---1-----|-----------1-----|
|---2--------2-----|---2-------2-----|-----2-------2---|---------2---2---|
|-2--------0-------|-----------------|---2-----------2-|---2---2-------2-|
|------------------|-3-------2-------|-0---------------|-0---0-----------|
|------------------|-----------------|-----------------|-----------------|


|---------0------|-----------------|
|-------1---1----|-----------1-----|
|-----2-------2--|---------2-------|
|---2-----------2|---2---2---------|
|-0--------------|-0---0-----------|
|----------------|-----------------|


|-------0--------|-------0---------|-------0--------|-------0---------|
|-----1---1------|-----1---1-------|-----1---1------|-----1---1-------|
|---2------2---2-|---2-------2---2-|---2------2---2-|---2-------2---2-|
|-2----------2---|-3-----------3---|-4----------4---|-3-----------3---|
|----------------|-----------------|----------------|-----------------|
|----------------|-----------------|----------------|-----------------|





|-------0-------0-|---------0-------|---------0------|---------0-------|
|-----1-------1---|-----1-----1---1-|-----1----------|-------1---1-----|
|---2-------2-----|---2---2-----2---|---2---2--------|-----2-------2---|
|-3-------2-------|-0---------------|-0--------------|---2-----------2-|
|-----------------|-----------------|-------------3-2|-0---------------|
|-----------------|-----------------|----------------|-----------------|


|-----------------|---------0-------|----------------|
|-----------1-----|-------1---1-----|-----------1----|
|---------2---2---|-----2-------2---|---------2------|
|---2---2-------2-|---2-----------2-|---2---2--------|
|-0---0-----------|-0---------------|-0---0--------0-|
|-----------------|-----------------|----------------|


|---------0-------|---------0-------|---------0-------|-----------------|
|-----1-----1---1-|-----1-----3p1---|-----1-----------|-5-5p3-3p1-1p0-0-|
|---0---0-----0---|---0---0---------|---0---0---------|-----------------|
|-----------------|-----------------|-----------------|-----------------|
|-3---------------|-2---------------|-0---------------|-----------------|
|-----------------|-----------------|-----------------|-----------------|

|---------0-------|---------0-------|---------0-------|---8------7------|
|-----1-----1---1-|-----1-----3p1---|-----1-----------|-----------------|
|---0---0-----0---|---0---0---------|---0---0---------|-9------7--------|
|-----------------|-----------------|-----------------|-----------------|
|-3---------------|-2---------------|-0---------------|-----------------|
|-----------------|-----------------|-----------------|-----------------|


|-------0--------|------0----------|------0---------|------0----------|
|-----1---1------|-----1---1-------|----1---1-------|----1---1--------|
|---2------2---2-|---2-------2---2-|---2------2---2-|---2-------2---2-|
|-2----------2---|-3-----------3---|-4----------4---|-3-----------3---|
|----------------|-----------------|----------------|-----------------|
|----------------|-----------------|----------------|-----------------|


|-------0--------0-|-------0-------0-|-----------------|-5-7-8------12---|
|-----1--------1---|-----1-------1---|-------1----1/5--|------------10---|
|---2--------2-----|---2-------2-----|-----2-----------|------------9----|
|-2--------0-------|-----------------|---2-------------|------------10---|
|------------------|-3-------2-------|-0---------------|------------0----|
|------------------|-----------------|-----------------|-----------------|



There are a couple of areas here that are still a little rough, but it's
much better than the existing version. Thanks to all the people who
posted versions of this song (this version is just a combination of the
best parts from other posts).

Peace,
Paul Z


From: andersk@stud.cs.uit.no (Anders Karlsen)
                                  
Is_there_anybody_out_there.tab
                       From Pink Floyd's "The Wall"
                        IS THERE ANYBODY OUT THERE
                                                               Roger Waters

]     = 1/8 pause
rit.  = Ritardando (Gradually slower)
p     = pick
h     = hammer on
/     = slide up
     = slide down
>     = accent

Chords above tabs is just a hint on how to place your fingers
Am    = 002210
H/C   = 020010
C     = 332010 (or 032010)
Esus4 = 002200


  4/4
  Am
e||------0---------|------0---------|------0---------|------0---------|
H||----1---1-------|----1---1-------|----1---1-------|----1---1-------|
G||--2-------2---2-|--2-------2---2-|--2-------2---2-|--2-------2---2-|
D||2-----------2---|3-----------3---|4-----------4---|3-----------3---|
A||----------------|----------------|----------------|----------------|
E||----------------|----------------|----------------|----------------|
   >           >    >           >    >           >    >           >

e|------0-------0-|------0-------0-|--------0-------|----------------|
H|----1-------1---|----1-------1---|------1---1-----|------1---------|
G|--2-------2-----|--2-------2-----|----2-------2---|----2---2-------|
D|2-------0-------|----------------|--2-----------2-|--2-------2---2-|
A|----------------|3-------2-------|0---------------|0-----------0---|
E|----------------|----------------|----------------|----------------|

e|--------0-------|----------------|------0---------|------0---------|
H|------1---1-----|------1---------|----1---1-------|----1---1-------|
G|----2-------2---|----2---2---2---|--2-------2---2-|--2-------2---2-|
D|--2-----------2-|--2-------2---2-|2-----------2---|3-----------3---|
A|0---------------|0---------------|----------------|----------------|
E|----------------|----------------|----------------|----------------|
                                    >           >    >           >

e|------0---------|------0---------|--------------0-|------0---------|
H|----1---1-------|----1---1-------|----1-------1---|----1---1-------|
G|--2-------2---2-|--2-------2---2-|--2-------2-----|--2-------2-----|
D|4-----------4---|3-----------3---|3-----2-0-------|0---------------|
A|----------------|----------------|----------------|------------3-2-|
E|----------------|----------------|----------------|----------------|
  >           >    >           >

e|--------0-------|----------------|--------0-------|--------0-------|
H|------1---1-----|------1---------|------1---1-----|------1---------|
G|----2-------2---|----2---2-------|----2-------2---|----2-----------|
D|--2-----------2-|--2-------2---2-|--2-----------2-|--2-------------|
A|0---------------|0-----------0---|0---------------|0---------------|
E|----------------|----------------|----------------|----------------|

  C                H/C              Esus4
e|--------0-------|----------0-----|--------0-------|0---------------|
H|------1---1-----|------1h3---3---|------0---0---1-|--1-3-0-1---0---|
G|----0-------0---|----0---------0-|----2-------1---|----------2---0-|
D|--2-----------2-|--0-------------|--2-------------|----------------|
A|3---------------|2---------------|0---------------|----------------|
E|----------------|----------------|----------------|----------------|

  C                H/C              Esus4
e|--------0-------|----------0-----|--------0-------|8-------7-------|
H|------1---1-----|------1h3---3---|------0---0-]---|----------------|
G|----0-------0---|----0---------0-|----2---------9-|------7---------|
D|--2-----------2-|--0-------------|--2-------------|----------------|
A|3---------------|2---------------|0---------------|----------------|
E|----------------|----------------|----------------|----------------|

  Am
e|------0---------|------0---------|------0---------|------0---------|
H|----1---1-------|----1---1-------|----1---1-------|----1---1-------|
G|--2-------2---2-|--2-------2---2-|--2-------2---2-|--2-------2---2-|
D|2-----------2---|3-----------3---|4-----------4---|3-----------3---|
A|----------------|----------------|----------------|----------------|
E|----------------|----------------|----------------|----------------|

                                    Am
e|------0-------0-|------0-------0-|------------------|12------------||
H|----1-------1---|----1-------1---|------1/5-10-12-13|10------------||
G|--2-------2-----|--2-------2-----|----2-------------|9-------------||
D|2-------0-------|----------------|--2---------------|--------------||
A|----------------|3-------2-------|0-----------------|0-------------||
E|----------------|----------------|------------------|--------------||
                                          rit.

IS THERE ANYBODY OUT THERE (revised)
>From _The Wall_ by Pink Floyd.
 
this is my new-and-improved version of this song's tab -- there were a
couple mistakes.  apologies to the original tab-person, I seem to have
lost your name in the editing.  (sheepish grin)





E|---------
B|---------
G|-----2---   (x8)
D|---------
A|--0------
E|---------


E|--------0---------|------0----------|------0----------|------0----------|
B|------1---1-------|-----1---1-------|----1---1--------|----1---1--------|
G|----2------2---2--|---2-------2---2-|---2------2---2--|---2-------2---2-|
D|--2----------2----|-3-----------3---|-4----------4----|-3-----------3---|
A|------------------|-----------------|-----------------|-----------------|
E|------------------|-----------------|-----------------|-----------------|
 
E|-------0--------0-|-------0-------0-|---------0-------|-----------------|
B|-----1--------1---|-----1-------1---|-------1---1-----|-----------1-----|
G|---2--------2-----|---2-------2-----|-----2-------2---|---------2---2---|
D|-2--------0-------|-----------------|---2-----------2-|---2---2-------2-|
A|------------------|-3-------2-------|-0---------------|-0---0-----------|
E|------------------|-----------------|-----------------|-----------------|

E|----------0-------|-----------------|
B|--------1---1-----|-----------1-----|
G|------2-------2---|---------2---2---|
D|----2-----------2-|---2---2---------|
A|--0---------------|-0---0-----------|
E|------------------|-----------------|

E|--------0---------|-------0---------|-------0---------|-------0---------|
B|------1---1-------|-----1---1-------|-----1---1-------|-----1---1-------|
G|----2------2---2--|---2-------2---2-|---2------2---2--|---2-------2---2-|
D|--2----------2----|-3-----------3---|-4----------4----|-3-----------3---|
A|------------------|-----------------|-----------------|-----------------|
E|------------------|-----------------|-----------------|-----------------|
 
E|----------------0-|-------0---------|---------0-------|
B|-----1--------1---|-----1---1-------|-------1---1-----|
G|---2--------2-----|---2-------2-----|-----2-------2---|
D|-3------2-0-------|-0---------------|---2-----------2-|
A|------------------|-------------3-2-|-0---------------|
E|------------------|-----------------|-----------------|

E|------------------|---------0-------|--------------0--|
B|------------1-----|-------1---1-----|-----------1-----|
G|----------2---2---|-----2-------2---|---------2-------|
D|----2---2-------2-|---2-----------2-|---2---2---------|
A|--0---0-----------|-0---------------|-0---0-----------|
E|------------------|-----------------|-----------------|

E|---------0--------|-----------0-----|---------0-------|-----------------|
B|-------1---1------|-------1-3---3-1-|-------0---0-----|---5--3-1-1-0-0--|
G|-----0-------0----|-----0-----------|-----2-------2---|-5--4-----------0|
D|---2-----------2--|---0-------------|---2-------------|-----------------|
A|-3----------------|-2---------------|-0---------------|-----------------|
E|------------------|-----------------|-----------------|-----------------|

E|---------0--------|-----------0-----|---------0-------|-----8------7----|
B|-------1---1------|-------1-3---3-1-|-------0---0-----|-----------------|
G|-----0-------0----|-----0-----------|-----2-------2---|---9------7------|
D|---2-----------2--|---0-------------|---2-------------|-----------------|
A|-3----------------|-2---------------|-0---------------|-----------------|
E|------------------|-----------------|-----------------|-----------------|

E|--------0---------|------0----------|-------0---------|------0----------|
B|------1---1-------|-----1---1-------|-----1---1-------|----1---1--------|
G|----2------2---2--|---2-------2---2-|----2------2---2-|---2-------2---2-|
D|--2----------2----|-3-----------3---|--4----------4---|-3-----------3---|
A|------------------|-----------------|-----------------|-----------------|
E|------------------|-----------------|-----------------|-----------------|
 
E|-------0--------0-|-------0-------0-|-----------------|-5-7-8------12---|
B|-----1--------1---|-----1-------1---|-------1----1/5--|------------10---|
G|---2--------2-----|---2-------2-----|-----2-----------|------------9----|
D|-2--------0-------|-----------------|---2-------------|------------10---|
A|------------------|-3-------2-------|-0---------------|------------0----|
E|------------------|-----------------|-----------------|-----------------|

the majority of this tab was perfect, I just noticed a few oddities and
changed them -- playing it as it is above now sounds exactly like the album.

tchand

well, sort of.  ;)
Guitar Tabs FROM THE TOP 60 ARTISTS
1.  AC/DC Guitar Tabs
2.  AEROSMITH Guitar Tabs
3.  ALANIS MORISSETTE Guitar Tabs
4.  BEATLES Guitar Tabs
5.  BLINK 182 Guitar Tabs
6.  BOB DYLAN Guitar Tabs
7.  BOB MARLEY Guitar Tabs
8.  BUSH Guitar Tabs
9.  COLDPLAY Guitar Tabs
10.  DAVE MATTHEWS Guitar Tabs
11.  ERIC CLAPTON Guitar Tabs
12.  GRATEFUL Dead Guitar Tabs
13.  GREEN DAY Guitar Tabs
14.  IRON MAIDEN Guitar Tabs
15.  JACK JOHNSON Guitar Tabs
16.  JIMI HENDRIX Guitar Tabs
17.  JOHN MAYER Guitar Tabs
18.  JOHNNY CASH Guitar Tabs
19.  LED ZEPPELIN Guitar Tabs
20.  LIMP BIZKIT Guitar Tabs
21.  METALLICA Guitar Tabs
22.  NEIL YOUNG Guitar Tabs
23.  NIRVANA Guitar Tabs
24.  PEARL JAM Guitar Tabs
25.  PINK FLOYD Guitar Tabs
26.  RADIOHEAD Guitar Tabs
27  RED HOT CHILI PEPPERS Guitar Tabs
28  ROLLING STONES Guitar Tabs
29  STONE TEMPLE PILOTS Guitar Tabs
30  U2 Guitar Tabs
31.  VAN HALEN Guitar Tabs
32.  WEEZER Guitar Tabs