Guitar Resources


Pigs Three Different Ones (By PINK FLOYD)
 
From: "Chris Clayton" <chris@claytonland.uku.co.uk>
Subject: p/pink_floyd/pigs_three_different_ones.tab
Date: Mon, 17 Sep 2001 18:15:40 +0100

Song: Pigs (Three different ones)=20
Band: Pink Floyd
Album: Animals
Transcribed by : Kris Clayton

This is probably the most famous track off the album, its the
one they always play on documenterys and such like.
I only know the intro.

intro
e---0-2-3-2-0-2-3----0-2-3-2-0-2-3----0-2-3-2-0-2-3---0-2-3-2-0-2-3-
B-0----------------0----------------1---------------1---------------
G-------------------------------------------------------------------
D-------------------------------------------------------------------
A-------------------------------------------------------------------
E-------------------------------------------------------------------

play this a few times and a solo starts to play over the top which
i don't know. after the solo this chord sequence comes in over the
intro riff.
CHORD SEQUENCE:   
    __          __          __          __
  | || |      | || |      | || |      | || |
  / // /      / // /      / // /      / // /
e-----------------------------------------------------------------
B-0-00-0------0-00-0------0-00-0------0-00-0----------------------
G-0-00-0-REST-0-00-0-REST-0-00-0-REST-0-00-0-REST-----------------
D-9-99-9------5-55-5------5-55-5------5-55-5----------------------
A-7-77-7------7-77-7------3-33-3------7-77-7----------------------
E-----------------------------------------------------------------

these chords have to have delay/reverb on to work, other wise
you'll just have to strum the repeats out yourself quieter.

these are the lyrics, i'm not sure about the chords played over
but i know they are played in the same rythem as the rythm as=20
the chords sequence and i know the first three are:

Em    C     G
Guitar Tabs FROM THE TOP 60 ARTISTS
1.  AC/DC Guitar Tabs
2.  AEROSMITH Guitar Tabs
3.  ALANIS MORISSETTE Guitar Tabs
4.  BEATLES Guitar Tabs
5.  BLINK 182 Guitar Tabs
6.  BOB DYLAN Guitar Tabs
7.  BOB MARLEY Guitar Tabs
8.  BUSH Guitar Tabs
9.  COLDPLAY Guitar Tabs
10.  DAVE MATTHEWS Guitar Tabs
11.  ERIC CLAPTON Guitar Tabs
12.  GRATEFUL Dead Guitar Tabs
13.  GREEN DAY Guitar Tabs
14.  IRON MAIDEN Guitar Tabs
15.  JACK JOHNSON Guitar Tabs
16.  JIMI HENDRIX Guitar Tabs
17.  JOHN MAYER Guitar Tabs
18.  JOHNNY CASH Guitar Tabs
19.  LED ZEPPELIN Guitar Tabs
20.  LIMP BIZKIT Guitar Tabs
21.  METALLICA Guitar Tabs
22.  NEIL YOUNG Guitar Tabs
23.  NIRVANA Guitar Tabs
24.  PEARL JAM Guitar Tabs
25.  PINK FLOYD Guitar Tabs
26.  RADIOHEAD Guitar Tabs
27  RED HOT CHILI PEPPERS Guitar Tabs
28  ROLLING STONES Guitar Tabs
29  STONE TEMPLE PILOTS Guitar Tabs
30  U2 Guitar Tabs
31.  VAN HALEN Guitar Tabs
32.  WEEZER Guitar Tabs