Guitar Resources


Wish You Were Here (2) (By PINK FLOYD)
 
Pink Floyd - Wish You Were Here
Originally tabbed by Jeremy Joseph and Ray Espinoza, combined and edited by Todd Crayton
-------------------------------------------------------------------------------------------------


All song using acoustic guitars	  h = hammer      s = slide      b = bend      p = pull-off




Intro / Fill 1 : 		


     
e:|----------------|--3---3-3-3--|--------------|--3---3-3-3----|----------------|--3---3-3-3--|------------|--3--3-3-3-|
B:|----------------|--3---3-3-3--|--------------|--3---3-3-3----|----------------|--3---3-3-3--|------------|--3--3-3-3-|
G:|----------------|--0---0-0-0--|-----0--------|--0---0-0-0----|----------------|--0---0-0-0--|----0-------|--0--0-0-0-|
D:|----------0--2--|--2---2-2-2--|--2-----2--0--|--0---0-0-0----|----------0--2--|--2---2-2-2--|--2---2--0--|--0--0-0-0-|
A:|-----0h2--------|-------------|--------------|---------------|-----0h2--------|-------------|------------|-----------|
E:|-3--------------|-------------|--------------|---------------|--3-------------|-------------|------------|-----------|




e:|----------------|--3---3-3-3--|--------------|--3---3-3-3----|----------------|--3---3-3-3--|------------|--3--3-3-3-|
B:|----------------|--3---3-3-3--|--------------|--3---3-3-3----|----------------|--3---3-3-3--|------------|--3--3-3-3-|
G:|----------------|--0---0-0-0--|--------------|--0---0-0-0----|----------------|--0---0-0-0--|------------|--0--0-0-0-|
D:|----------0--2--|--2---2-2-2--|--2--0--------|--0---0-0-0----|----------0--2--|--2---2-2-2--|--2-0-------|--0--0-0-0-|
A:|-----0h2--------|-------------|--------2--0--|---------------|-----0h2--------|-------------|-------2-0--|-----------|
E:|--3-------------|-------------|--------------|---------------|--3-------------|-------------|------------|-----------|




e:|---------------3--3-3-3-3--3-3-3-3-3--|
B:|---------------3--3-3-3-3--3-3-3-3-3--|
G:|---------------0--0-0-0-0--0-0-0-0-0--|
D:|-------0-------0--0-0-0-0--0-0-0-0-0--|
A:|--0h2----------2--2-2-2-2--2-2-2-2-2--|
E:|----------3----3--3-3-3-3--3-3-3-3-3--|






This next part is done with two guitars. 
One plays the intro above (Fill 1) and the other plays the lead part tabbed below, coming in after the first bar.




First Solo :
e:-----------------------------------------------------|---3s5---3---------------------------------|
B:----------3----5-------3-----------------------------|---3s5---3---3s5---3p0---3s5---5--5s3--0---|
G:----2h4------------4--------4p2p0--------------------|-------------2s4---2p0---2s4---4--4s2--0---|
D:-------------------------------------0---------0--0--|-------------------------------------------|
A:-----------------------------------------1h2---------|-------------------------------------------|
E:-----------------------------------------------------|-------------------------------------------|




e:-----------------------------------------------------|-------------------------------------------|
B:--------3-----5b7-----5p3-----------3--5b7--5--3-----|-------3-----5b7---5-----3-----------------|
G:---2h4-----4----------------2--4b6----------------2--|--2h4-----4-----------4-----2---4b6---2----|
D:-----------------------------------------------------|-------------------------------------------|
A:-----------------------------------------------------|-------------------------------------------|
E:-----------------------------------------------------|-------------------------------------------|






Then the chords and the lyrics come in.


G (from Fill 1)   	C            	          D
     				So, so you think you can tell
             Am                  G                            D
heaven from hell, blue sky from pain. Can you tell a green field, from a 
             C                   Am                          G
cold steel rail, a smile from a veil? Do you think you can tell? 


                   C                      D                     Am
Did they get you trade, your heroes for ghosts, hot ashes for trees, hot air
             G                         D                  C        
from a cool breeze, cold comfort for change, did you exchange, a walk on 
                Am                          G
the part in the war, for a lead role in the cage.


(guitar solo played over Fill 1) (added by Andreas Sjolund)
(Actually, this part is sung over the guitar solo)


--------10-10-------10-10---12-10-10----------------------------
---10/12-------10/12-----------------12-------------------------
----------------------------------------------------------------
----------------------------------------------------------------
----------------------------------------------------------------
----------------------------------------------------------------


---------10-10-10-12-10-----------------------------------------
---10/12--------------------12p10p8-----------------------------
-----------------------------------7-7---9-7--------------------
---------------------------------------9------------------------
----------------------------------------------------------------
----------------------------------------------------------------


----------------10-10-10-----------12---------------------------
-----8-10-10/12---------10--12/14----14p12p10-------------------
---9------------------------------------------------------------
----------------------------------------------------------------
----------------------------------------------------------------
----------------------------------------------------------------
                                                    G
---------10---------------------------12------------------------
---10/12----12p10p8-10-12-12-8--12/14-----14p12p10--8-----------
----------------------------------------------------------------
----------------------------------------------------------------
----------------------------------------------------------------
----------------------------------------------------------------


G (from Fill 1) C                          	 	D               Am
    How I wish, how I wish you were here. We're just two lost souls swimming
          		 G                 D                               	 C
in a fish bowl, year after year. Running over the same old ground, but have
		 	  Am                   G
we found the same old fears, wish you were here.


(guitar solo, played over Fill 1)
This second guitar solo is almost identical to the first, with very 
slight variations on the same basic:
--------10		and 		--------12
--10/12---				--12/14---		themes
Guitar Tabs FROM THE TOP 60 ARTISTS
1.  AC/DC Guitar Tabs
2.  AEROSMITH Guitar Tabs
3.  ALANIS MORISSETTE Guitar Tabs
4.  BEATLES Guitar Tabs
5.  BLINK 182 Guitar Tabs
6.  BOB DYLAN Guitar Tabs
7.  BOB MARLEY Guitar Tabs
8.  BUSH Guitar Tabs
9.  COLDPLAY Guitar Tabs
10.  DAVE MATTHEWS Guitar Tabs
11.  ERIC CLAPTON Guitar Tabs
12.  GRATEFUL Dead Guitar Tabs
13.  GREEN DAY Guitar Tabs
14.  IRON MAIDEN Guitar Tabs
15.  JACK JOHNSON Guitar Tabs
16.  JIMI HENDRIX Guitar Tabs
17.  JOHN MAYER Guitar Tabs
18.  JOHNNY CASH Guitar Tabs
19.  LED ZEPPELIN Guitar Tabs
20.  LIMP BIZKIT Guitar Tabs
21.  METALLICA Guitar Tabs
22.  NEIL YOUNG Guitar Tabs
23.  NIRVANA Guitar Tabs
24.  PEARL JAM Guitar Tabs
25.  PINK FLOYD Guitar Tabs
26.  RADIOHEAD Guitar Tabs
27  RED HOT CHILI PEPPERS Guitar Tabs
28  ROLLING STONES Guitar Tabs
29  STONE TEMPLE PILOTS Guitar Tabs
30  U2 Guitar Tabs
31.  VAN HALEN Guitar Tabs
32.  WEEZER Guitar Tabs