Guitar Resources


Wish You Were Here (3) (By PINK FLOYD)
 
Wish you were here
Pink Floyd

Tabbed by Jeremy Smith 
Rift 1

 Rift 1
E --------------------3-----------------3--------------------3-----------------3
B --------------------3-----------------3--------------------3-----------------3
G --------------------0----0------------0--------------------0-----0-----------0
D ---------0---2------2--2---2-0--------0---------0---2------2---2----2-0------0
A ----0/2-------------2-----------------2------0/2-----------2-----------------2
E -3------------------0-----------------3----3---------------0-----------------3

E --------------------3-----------------3--------------------3-----------------3
B --------------------3-----------------3--------------------3-----------------3
G --------------------0-----------------0--------------------0-----------------0
D ---------0---2------2--0-2------------0---------0---2------2---2-0-----------0
A ----0/2-------------2------0-2--------2------0/2-----------2-------2-0-------2
E -3------------------0-----------------3----3---------------0-----------------3
              strum G
E------------3
B------------3
G------------0
D------------0
A--0/2-0-----2
E--------2-3-3

Rift 2
E ----------------------------------3/5-3-------------------------------------
B -------3-5-3----------------------3/5-3-3/-3------3/-3-00-------------------
G -2/3/4-------4p2p0----------------------2/-2------2/-2-00-------------------
D --------------------2------00-----------------------------------------------
A -----------------------1/2--------------------------------------------------
E ----------------------------------------------------------------------------
                                                             Strum  G with guitar 1
E ----------------------------------------------------------------------------3
B -------3-5-3-5b---3-5-3-----------------3-5-3-5b----------------------------3
G -2/3/4----------4-------2--------2/3/4-----------4-2-0----------------------0
D ----------------------------------------------------------------------------0
A ----------------------------------------------------------------------------2
E ----------------------------------------------------------------------------3


Come from Rift 1 and 2
G	C                           D
	So, so you think you can tell
              Am
Heaven from hell,
                  G 
Blue sky from pain. 
                        D
Can you tell a green field,
                     C 
From a cold steel rail,  
                  Am 
A smile from a veil? 
                        G
Do you think you can tell? 
                     C
Did they get you trade, 
                    D
Your heroes for ghosts, 
                Am
Hot ashes for trees, 
                         G
Hot air from a cool breeze, 
                      D
Cold comfort for change, 
               C   
Did you exchange, 
                           Am
A walk on the part in the war, 
                          G
For a lead role in the cage.



SOLO play rift 1 over solo
--------10-10-------10-10---12-10-10----------------------------
---10/12-------10/12-----------------12-------------------------
----------------------------------------------------------------
----------------------------------------------------------------
----------------------------------------------------------------
----------------------------------------------------------------

-------------10-10-10-12-10-------------------------------------
---10/12--------------------12p10p8-----------------------------
-------------------------------------7-7---9-7------------------
----------------------------------------9-----------------------
----------------------------------------------------------------
----------------------------------------------------------------

----------------10-10-10-----------12---------------------------
-----8-10-10/12---------10--12/14----14p12p10-------------------
---9------------------------------------------------------------
----------------------------------------------------------------
----------------------------------------------------------------
----------------------------------------------------------------
                                                    
---------10---------------------------12----------------------------
---10/12----12p10p8-10-12-12-8--12/14-----14p12p10--8---------------
--------------------------------------------------------------------
--------------------------------------------------------------------
--------------------------------------------------------------------
--------------------------------------------------------------------


Come from rift 1 and 2
G    C                                 D
    How I wish, how I wish you were here. 
         Am                                     G
We're just two lost souls swimming in a fish bowl, 
              D
Year after year. 
                              C    
Running over the same old ground,
                                  Am
But have we found the same old fears, 
                       G
How I wish you were here.

 Rift 1
E --------------------3-----------------3--------------------3-----------------3
B --------------------3-----------------3--------------------3-----------------3
G --------------------0----0------------0--------------------0-----0-----------0
D ---------0---2------2--2---2-0--------0---------0---2----2-2---2----2-0------0
A ----0/2-------------2-----------------2------0/2-----------2-----------------2
E -3------------------0-----------------3----3---------------0-----------------3

E --------------------3-----------------3--------------------3-----------------3
B --------------------3-----------------3--------------------3-----------------3
G --------------------0----0------------0--------------------0-----------------0
D ---------0---2------2--2---2-0--------0---------0---2----2-2---2-0-----------0
A ----0/2-------------2-----------------2------0/2-----------2-------2-0-------2
E -3------------------0-----------------3----3---------------0-----------------3

              strum G
E------------3
B------------3
G------------0
D------------0
A--0/2-0-----2
E--------2-3-3

Guitar Tabs FROM THE TOP 60 ARTISTS
1.  AC/DC Guitar Tabs
2.  AEROSMITH Guitar Tabs
3.  ALANIS MORISSETTE Guitar Tabs
4.  BEATLES Guitar Tabs
5.  BLINK 182 Guitar Tabs
6.  BOB DYLAN Guitar Tabs
7.  BOB MARLEY Guitar Tabs
8.  BUSH Guitar Tabs
9.  COLDPLAY Guitar Tabs
10.  DAVE MATTHEWS Guitar Tabs
11.  ERIC CLAPTON Guitar Tabs
12.  GRATEFUL Dead Guitar Tabs
13.  GREEN DAY Guitar Tabs
14.  IRON MAIDEN Guitar Tabs
15.  JACK JOHNSON Guitar Tabs
16.  JIMI HENDRIX Guitar Tabs
17.  JOHN MAYER Guitar Tabs
18.  JOHNNY CASH Guitar Tabs
19.  LED ZEPPELIN Guitar Tabs
20.  LIMP BIZKIT Guitar Tabs
21.  METALLICA Guitar Tabs
22.  NEIL YOUNG Guitar Tabs
23.  NIRVANA Guitar Tabs
24.  PEARL JAM Guitar Tabs
25.  PINK FLOYD Guitar Tabs
26.  RADIOHEAD Guitar Tabs
27  RED HOT CHILI PEPPERS Guitar Tabs
28  ROLLING STONES Guitar Tabs
29  STONE TEMPLE PILOTS Guitar Tabs
30  U2 Guitar Tabs
31.  VAN HALEN Guitar Tabs
32.  WEEZER Guitar Tabs