Guitar Resources


Anyone Can Play Guitar (By RADIOHEAD)
 
Radiohead - Anyone Can Play Guitar
Album: Pablo Honey (1993)


BEGINNING :
Em
-0--------12-----12-------0----12------------------------------------------------
-0-------------------------------------------------------------------------------
-0-------------------------------------------------------------------------------
-2-------------------------------------------------------------------------------
-2----------------------------------------7---6------10---9-----13---12----------
-0-------------------------------------------------------------------------------
\w/phaser\

INTRO :
 Em                     C
--0-----------------0/x/8----x-----8------8\x\x\x\x\0----------/8----x-----8---\x--
--0-----------------0/x/8----x-----8------8\x\x\x\x\0----------/8----x-----8---\x--
--0-----------------0/x/9----x-----9------9\x\x\x\x\0----------/9----x-----8---\x--
--2-----------------2/x/10---x----10-----10\x\x\x\x\2----------/10---x----10---\x--
--2-----------------2/x/10---x----10-----10\x\x\x\x\2----------/10---x----10---\x--
--0-----------------0/x/8----x-----8------8\x\x\x\x\0----------/8----x-----8---\x-- 
              slide up                  slide down          slide up     slide down
VERSE :
 Em                                        C             Em                                                                   
--0----------------------------------0/x/8-------8\x\0----------------------------------------------0/x/8
--0----------------------------------0/x/8-------8\x\0----------------------------------------------0/x/8
--0----------------------------------0/x/9-------9\x\0----------------------------------------------0/x/9
--2----------------------------------2/x/10-----10\x\2----------------------------------------------2/x/10
--2----------------------------------2/x/10-----10\x\2----------------------------------------------2/x/10
--0----------------------------------0/x/8-------8\x\0----------------------------------------------0/x/8
Destiny, destiny protect me from the world,.......... destiny, hold my hand protect me from the world

ADD (sur couplet) :
   Em               C                      Em         C
B----------------11--13-----------------------11--13--------13--11--13
G------------------------12-----------------------------12------------------12


BRIDGE :
---------------------------------------------------------------------------------------------
----------------------------------------------------------------------------------------------
--11--12--14--12--11---------9------------11---------------12-----------14----------16--16--16
----------------------------------------------------------------------------------------------
--9---10--12--10---9---------7-------------9---------------10-----------12----------14--14--14
----------------------------------------------------------------------------------------------
Here we are...... with our running and confusion, and I don't see no confusion anywhere

CHORUS :
           G5   G5/F#     Em5         C5   C5/B   A5              D5      D5/C   G5          Em5   D5
-----------------------------------------------------------------------------------------------------
-----------------------------------------------------------------------------------------------------
--------------------------------------5-----5------2--------------7-------7------------------------7-
-----------5------5--------2----------5-----5------2--------------7-------7-------5-----------2----7-
-----------5------5--------2----------3-----2------0--------------5-------3-------5-----------2----5-
-----------3------2--------0------------------------------------------------------3-----------0------
And if the worm ...does... turn and if Lon....don.. burns I'll be standing on the beach with my guitar 

 D5     G5   G5/F#   Em5         C5     C5/B     A5         D5              G5               Em5             D5
----------------------------------------------------------------------------------------------------------------
----------------------------------------------------------------------------------------------------------------
--7------------------------------5--------5-------2---------7-------------------------------------------------7-
--7------5-----5------2----------5--------5-------2---------7---------------5-----------------2---------------7-
--5------5-----5------2----------3--------2-------0---------5---------------5-----------------2---------------5-
---------3-----2------0-----------------------------------------------------3-----------------0-----------------
I wanna be.. in a.. band when I get to. hea.....ven ...anyone can play guitar, and they won't be a nothing anymore

INTERLUDE :

 C5         Em                 Bb                                            Em
-------------------------------------------------------------------------------------------
-------------------------------------------------------------------------------------------
-5--------------------------------------------------------------------------9---7--5--4-
-5----------------------------------------------------------------------------------------
-3----------------------------------------------------------------------------------------
-------3--2--0-----0--2--3--5--6----5--3--6----5--3--6---5--3--0------------------ 



        Bb                                                    Em
--------------------------------------------------------------0-
--------------------------------------------------------------0-
--------------------------------------------------------------0-
-------5---7---8------7---5---8------7---5---8------7---5-----2-
--------------------------------------------------------------2-
-------3---5---6------5---3---6------5---3---6------5---3-----0-

2nd Bridge + SOLO :
-----------------------------------------------------------------------------------------------
-----------------------------------------------------------------------------------------------
-11--12--14--12--11---------9-------------11--------------12-------------14----------16--17--19
-----------------------------------------------------------------------------------------------
-9---10--12--10---9---------7--------------9--------------10-------------12----------14--15--17
-----------------------------------------------------------------------------------------------
Here.we are...... with our running and confusion, and I don't see no confusion anywhere


SOLO

--------------------------------------------------------------------------------
--------------------------------------------------------------------------------
--------------------------------------------------------------------------------
-19---19---19---17-19-19--17-19-19--17-19-19--17-19-19---17\16\14\12\11\9\7\5\4-
--------------------------------------------------------------------------------
-17---17---17-------------------------------------------------------------------
--------------------------------------------------------------------------------


LYRICS:


Destiny, destiny protect me from the world 
Destiny, hold my hand protect me from the world 
Here we are with our running and confusion, 
And I don't see no confusion anywhere.. 

And if the worm does turn 
And if London burns 
I'll be standing on the beach with my guitar 
I wanna be in a band when I get to heaven 
Anyone can play guitar 
And they won't be a nothing anymore 

Grow my hair, grow my hair I am Jim Morrison 
Grow my hair, I wanna be wanna be wanna be Jim Morrison 
Here we are with our running and confusion 
And I don't see no confusion anywhere 



Guitar Tabs FROM THE TOP 60 ARTISTS
1.  AC/DC Guitar Tabs
2.  AEROSMITH Guitar Tabs
3.  ALANIS MORISSETTE Guitar Tabs
4.  BEATLES Guitar Tabs
5.  BLINK 182 Guitar Tabs
6.  BOB DYLAN Guitar Tabs
7.  BOB MARLEY Guitar Tabs
8.  BUSH Guitar Tabs
9.  COLDPLAY Guitar Tabs
10.  DAVE MATTHEWS Guitar Tabs
11.  ERIC CLAPTON Guitar Tabs
12.  GRATEFUL Dead Guitar Tabs
13.  GREEN DAY Guitar Tabs
14.  IRON MAIDEN Guitar Tabs
15.  JACK JOHNSON Guitar Tabs
16.  JIMI HENDRIX Guitar Tabs
17.  JOHN MAYER Guitar Tabs
18.  JOHNNY CASH Guitar Tabs
19.  LED ZEPPELIN Guitar Tabs
20.  LIMP BIZKIT Guitar Tabs
21.  METALLICA Guitar Tabs
22.  NEIL YOUNG Guitar Tabs
23.  NIRVANA Guitar Tabs
24.  PEARL JAM Guitar Tabs
25.  PINK FLOYD Guitar Tabs
26.  RADIOHEAD Guitar Tabs
27  RED HOT CHILI PEPPERS Guitar Tabs
28  ROLLING STONES Guitar Tabs
29  STONE TEMPLE PILOTS Guitar Tabs
30  U2 Guitar Tabs
31.  VAN HALEN Guitar Tabs
32.  WEEZER Guitar Tabs