Guitar Resources


Bishops Robes (By RADIOHEAD)
 
Date: Mon, 25 Jun 2001 08:29:55 -0400
From: "Andrew Morrison" <twisteddisturbed@hotmail.com>
Subject: r/radiohead/bishops_robes.tab

Song: Bishop's Robes
Artist: Radiohead
Album: B-Side of Street Spirit (CD 1)
Tabbed By Andy Morrison

Intro

E-----------------------------------------------------------------
B-----------------------------0---------------------------0-------
G-------0---------2-------2-----2-------2p0-----0-----------2-----
D---------2-----2---2-------1-----1---------------2-----2---------
A-----2-----2-0-------0/2-----------0h2-------2-----2-0-------0/2-
E---0---------------------------------------0---------------------
                           Verse 1
E-------0--------------- | ---------------------------------------
B---------0------------- | -----------------------------0---------
G-2---------2-------2p0- | -----0---------2-------2-------2-------
D---1---------1--------- | -------2-----2---2-------1-------1-----
A-----2---------0h2----- | ---2-----2-0-------0/2-----2-------0h2-
E----------------------- | -0-------------------------------------
         Verse 2                               Verse 3
E----- | -------------0-------------------0- | -------------------
B----- | -----0---------0------------------- | ---------------0---
G----- | -------2-------------2-------2----- | -----0-----------2-
D-1--- | -----------2-----------1-------1--- | -------2-----2-----
A---0- | ---2-----0-------0/2-----0h2------- | ---2-----2-0-------
E----- | -0--------------------------------- | -0-----------------
                   Chorus 1
E--------------- | ---------------------------------- |
B--------------- | -5---/12-5---/12-5---/12-12-1210- |
G-----2-------2- | -5---/12-5---/12-5---/12-12-1210- |
D-------2---2--- | -5---/12-5---/12-5---/12-12-1210- |
A-0/2-----0----- | -3---/10-3---/10-3---/10-10-108-- |
E--------------- | ---------------------------------- |

  Verse 4 (Guitar One)
E-------0-------0-------------2-0---------------------------------
B---------0-----------------------0-----------------------0-------
G-----------0h2---2-----2-----------2-----------0-----------2-----
D-------------------1-----1-----------1-----------2-----1---------
A-----2---------------2-----2-----------2-0---2-----2-0-------0h2-
E---0---------------------------------------0---------------------


E-------------------------0---------0-------------0-------2-------
B---------------------------0---------0-------------0-------0-----
G-2---------2-----------------0---------2---------------2-----2---
D---1-----1---1---------------------------------1-----1---------1-
A-----0h2-------0-2-0---2-------0h2-------2-0-2-------------------
E---------------------0-------------------------------------------

Im not to sure about guitar two but it sounds similar.

  Verse 4 (Guitar Two)
E--------------------------------------14-14-----------------------
B--------------------------------------------12-12h13p12---11^(12)-
G---14^(16)-10^(11)-(8)^7^(8)-16-18-20-----------------------------
D---X-------X--------X--------14-14-14-----------------------------
A---X-------X-----------------14-16-18-----------------------------
E------------------------------------------------------------------

E------------------------------------- |
B-12^(14)-14^(16)-16-16-16^(17)-14-12- |
G-----------------------X------------- |   Repeat Chorus 1
D-----------------------X------------- |
A-----------------------X------------- |
E------------------------------------- |

Outro

Guitar 0ne

E--------------------------------------------------------------------
B---5---/12-5---/12-5---/12-12-1210---12-1210---12-1210---10-108-
G---5---/12-5---/12-5---/12-12-1210---12-1210---12-1210---10-109-
D---5---/12-5---/12-5---/12-12-1210---12-1210---12-1210---10-109-
A---3---/10-3---/10-3---/10-10-108----10-108----10-108----8--8-7-
E--------------------------------------------------------------------

Guitar Two
              x3
E--------------- | --------------------------------------------------
B---15-13-12-10- | -12-1210-12-1210-12-1210-10-10---10-10-10-108-
G--------------- | ----------X--X-----X--X-------------------X--X----
D--------------- | ----------X--X-----X--X-------------------X--X----
A--------------- | --------------------------------------------------
Guitar Tabs FROM THE TOP 60 ARTISTS
1.  AC/DC Guitar Tabs
2.  AEROSMITH Guitar Tabs
3.  ALANIS MORISSETTE Guitar Tabs
4.  BEATLES Guitar Tabs
5.  BLINK 182 Guitar Tabs
6.  BOB DYLAN Guitar Tabs
7.  BOB MARLEY Guitar Tabs
8.  BUSH Guitar Tabs
9.  COLDPLAY Guitar Tabs
10.  DAVE MATTHEWS Guitar Tabs
11.  ERIC CLAPTON Guitar Tabs
12.  GRATEFUL Dead Guitar Tabs
13.  GREEN DAY Guitar Tabs
14.  IRON MAIDEN Guitar Tabs
15.  JACK JOHNSON Guitar Tabs
16.  JIMI HENDRIX Guitar Tabs
17.  JOHN MAYER Guitar Tabs
18.  JOHNNY CASH Guitar Tabs
19.  LED ZEPPELIN Guitar Tabs
20.  LIMP BIZKIT Guitar Tabs
21.  METALLICA Guitar Tabs
22.  NEIL YOUNG Guitar Tabs
23.  NIRVANA Guitar Tabs
24.  PEARL JAM Guitar Tabs
25.  PINK FLOYD Guitar Tabs
26.  RADIOHEAD Guitar Tabs
27  RED HOT CHILI PEPPERS Guitar Tabs
28  ROLLING STONES Guitar Tabs
29  STONE TEMPLE PILOTS Guitar Tabs
30  U2 Guitar Tabs
31.  VAN HALEN Guitar Tabs
32.  WEEZER Guitar Tabs