Guitar Resources


I Might Be Wrong (By RADIOHEAD)
 
Date: Mon, 25 Jun 2001 06:23:48 -0400
From: stephen <influx@dingoblue.net.au>
additions From: "Phil McLennan" <feeble37@hotmail.com>
corrections From: "Andrew Morrison" <twisteddisturbed@hotmail.com>
Subject: r/radiohead/i_might_be_wrong.tab

Song: I Might Be Wrong
Artist: Radiohead
Album: Amnesiac
Tabbed By Andy Morrison

Tune to a Dropped-D

For the verses I have tabbed out all the riffs that appear
during the verses. I didn't tab it out fully because it
would have taken up a lot of space and my time and I
couldn't be arsed even for Radiohead ;)

Verse A/Outro

G------------------------ | -----------------------
D-----0---0---0---0---0-- | ---0---0---0---0---0---
A------------------------ | -----------------------
D---0---3-/-5---3-------- | -0---3-/-5---3-------3-

B----------------------- | ---------------------
G----------------------- | ---------------2---2-
D---0---0---0---0---0--- | ---0---0---0-----0---
A----------------------- | ---------------------
D-0---3-/-5---3---3---0- | -0---3-/-5---3-------

G----------------------- |
D---0---0---0---0---0--- |
A----------------------- |
D-3-/-8-/-3---3---3----- |

I think the verses are played with two guitars.  With Guitar
One playing the E,B,G strings and Guitar Two playing D,A,D.
Listen to the song and improvise the verses using these guitar
parts- its easy enough.

Verse B

Guitar One
                   x?
A--------------------- | ----------------- | --------------- |
D---3---5---3---5---3- | -/15-15-14-14-14- | -3---5---3---5- |

Guitar Two

E--------------------------------------- | ----------------- |
B--------------------------------------- | ----------------- |
G---3---3-2---2-5---5-3---3-2/3---3-2--- | -10---10---9---9- |
D-----0-----0-----0-----0-------0-----0- | ----0----0---0--- |

E--------------------- |
B--------------------- |
G-2-3---3-2/3---3-2--- |
D-----0-------0-----0- |

Improvise on these parts, just try to keep the different sections
playing together.

Break

E-------------------------------------------------------
B---6---6---5-----5---5/6-----6-----5/3-----3-------3---
G-------------5-----------------------------------------
D---------------5---0-------7-----5-------3---3---3---3-
A-----5---5---------------5-----5-------1-------0-------
D---0------------------(0)------------------------------

E------------- | ---------------------------------------
B------------- | -6-----6-----53-----3-------3---------
G------------- | ---------------------------------------
D-----0------- | -----7-----5-------3---3---3---3-----0-
A------------- | ---5-----5-------1-------0-------------
D-1/3---3/5-5- | -0-------------------------------1/3---

E--------------- |
B--------------- |
G-------3------- |
D--------------- |
A--------------- |
D-3/5-5---3-2-0- |

Song Structure

                                  x2
| Verse A (Riffs 1,2,3,4) | Verse B | Break | Outro |
Guitar Tabs FROM THE TOP 60 ARTISTS
1.  AC/DC Guitar Tabs
2.  AEROSMITH Guitar Tabs
3.  ALANIS MORISSETTE Guitar Tabs
4.  BEATLES Guitar Tabs
5.  BLINK 182 Guitar Tabs
6.  BOB DYLAN Guitar Tabs
7.  BOB MARLEY Guitar Tabs
8.  BUSH Guitar Tabs
9.  COLDPLAY Guitar Tabs
10.  DAVE MATTHEWS Guitar Tabs
11.  ERIC CLAPTON Guitar Tabs
12.  GRATEFUL Dead Guitar Tabs
13.  GREEN DAY Guitar Tabs
14.  IRON MAIDEN Guitar Tabs
15.  JACK JOHNSON Guitar Tabs
16.  JIMI HENDRIX Guitar Tabs
17.  JOHN MAYER Guitar Tabs
18.  JOHNNY CASH Guitar Tabs
19.  LED ZEPPELIN Guitar Tabs
20.  LIMP BIZKIT Guitar Tabs
21.  METALLICA Guitar Tabs
22.  NEIL YOUNG Guitar Tabs
23.  NIRVANA Guitar Tabs
24.  PEARL JAM Guitar Tabs
25.  PINK FLOYD Guitar Tabs
26.  RADIOHEAD Guitar Tabs
27  RED HOT CHILI PEPPERS Guitar Tabs
28  ROLLING STONES Guitar Tabs
29  STONE TEMPLE PILOTS Guitar Tabs
30  U2 Guitar Tabs
31.  VAN HALEN Guitar Tabs
32.  WEEZER Guitar Tabs