Guitar Resources


Just (2) (By RADIOHEAD)
 
From: Neil Jenkins <neil.jenkins@green.oxford.ac.uk>
From: "P.A.U.L ----->" <funking_giblet@hotmail.com>
Subject: r/radiohead/just.tab
Date: Mon, 01 Apr 2002 23:07:30 +0100

Song: Just
Artist: Radiohead
Album : The Bends
Tabbed By : Paul Connolly (funking_giblet@hotmail.com)

h = hammer on
p = pull off
/ = slide up
 = slide down
x = rake
^ = Bend (target pitch is number to the right)
r = release bend
< = Feedback/Sustain
~ = Vibrato

Gtr.1 and Gtr.2 are grouped together and play at the same time.
Jonny uses a Digitex whammy for the Pitch Shifting I think.
(Well theres one on stage anyway, and I dont remember seeing anything else)



Intro:

e|------------------------------|
B|--5-5-x-x-8-8-x-7-7-7-x-10-10-|
G|--5-5-x-x-8-8-x-7-7-7-x-10-10-|
D|--5-5-x-x-8-8-x-7-7-7-x-10-10-|
A|--3-3-x-x-6-6-x-5-5-5-x--8--8-|
E|------------------------------|

Fig.1
Gtr.1 Trem picking
e|--------------------------------------------------|
B|--------------------------------------------------|
G|--5-5-5-7-8-8-8-10-11-11-11--13-14-14-14-16-16-16-|
D|--------------------------------------------------|
A|--3-3-3-5-6-6-6--8--9--9--9--11-12-12-12-14-14-14-|
E|--------------------------------------------------|

Gtr.2
e|--------------------------------------------------|
B|--5-5-x-x-8-8--x-x--7--7--x--x--10---10-x--x------|
G|--5-5-x-x-8-8--x-x--7--7--x--x--10---10-x--x------|
D|--5-5-x-x-8-8--x-x--7--7--x--x--10---10-x--x------|
A|--3-3-x-x-6-6--x-x--5--5--x--x---8----8-x--x------|
E|--------------------------------------------------|

Gtr.1 Trem picking
e|--8-8-8-10-11-11-11-13-14-14-14-16-17-17-17-|
B|--------------------------------------------|
G|--5-5-5--7--8--8--8-10-11-11-11-13-14-14-14-|
D|--------------------------------------------|
A|--------------------------------------------|
E|--------------------------------------------|

Gtr.2
e|--------------------------------------------|
B|--5-5-x---x-8-8--x-x---7--7--x--x--10---10--|
G|--5-5-x---x-8-8--x-x---7--7--x--x--10---10--|
D|--5-5-x---x-8-8--x-x---7--7--x--x--10---10--|
A|--3-3-x---x-6-6--x-x---5--5--x--x---8----8--|
E|--------------------------------------------|

Verse:
Gtr.1
e|-----------------------------------------------------------|
B|--5----4------------------------5----4---------------------|
G|--5----5----12-13-15--14-15-17--5----5----12-13-15--7-8-10-|
D|--7----6----13--------15--------7----6----13--------8------|
A|--7----6----x---------x---------7----6----x---------x------|
E|--5----4----11--------13--------5----4----11--------6------|

Gtr.2   Strum These Chords
e|-----------------------------------------------------------|
B|--5----4----8---------10--------5----4----8---------6------|
G|--5----5----8---------10--------5----5----8---------7------|
D|--7----6----8---------10--------7----6----8---------8------|
A|--7----6----6----------8--------7----6----6---------8------|
E|--5----4------------------------5----4--------------6------|

Gtr,1
e|------------------------------------------------------|
B|-----------5------------------------------------------|
G|-------5-7-----5-------5-7-8---5---4-----4-5-----5-8~-|
D|--7--7-------7----6--6-------6-------5-------4--------|
A|---------------------------------------5-------4------|
E|------------------------------------------------------|

Gtr.2
e|------------------------------------------------------|
B|--5-5-5-5-5-5-5---4-4-4-4-4-4-4-----------------------|
G|--5-5-5-5-5-5-5---5-5-5-5-5-5-5-----------------------|
D|--7-7-7-7-7-7-7---6-6-6-6-6-6-6----5-5-5-5-4-4-4-4-3--|
A|--7-7-7-7-7-7-7---6-6-6-6-6-6-6----5-5-5-5-4-4-4-4-3--|
E|--5-5-5-5-5-5-5---4-4-4-4-4-4-4----3-3-3-3-2-2-2-2-1--|

Chorus:
Gtr.1
e|------------------0-----------------0-------|
B|--x-x-x-5-5-x-2-2---2-2-x-1-1-1-1-1---1-1-x-|
G|--x-x-x-5-5-x-3-3-----3-x-2-2-2-2-2-----2-x-| Play Twice
D|--x-x-x-5-5-x-4-4-----4-x-3-3-3-3-3-----3-x-|
A|--x-x-x-3-3-x-4-4-----4-x-3-3-3-3-3-----3-x-|
E|--------------------------------------------|

Gtr.2
e|--------------------------------------------|
B|--x-x-x-5-5-x-2-2-----2-x-1-1-1-1-1-----1-x-|
G|--x-x-x-5-5-x-3-3-----3-x-2-2-2-2-2-----2-x-| Play Twice
D|--x-x-x-5-5-x-4-4-----4-x-3-3-3-3-3-----3-x-|
A|--x-x-x-3-3-x-4-4-----4-x-3-3-3-3-3-----3-x-|
E|--------------2-2-----2---1-1-1-1-1-----1---|

Now play Everything from Fig.1 to the Chorus again
And then play Fig.1 again.
After all that play this part.

Gtr.1 Trem Picking_~_________________|
e|----------------------------------------------------------------------------|
B|----5-5-5-5-7-8-8-8-8-10-11-11-11-11-11-----10------8-----6-----5-----------|
G|-------------------------------------13^15r-12^14r-10^12r-8^10r-7^9--------r|
D|----------------------------------------------------------------------------|
A|----------------------------------------------------------------------------|
E|----------------------------------------------------------------------------|

Gtr.2
e|----------------------------------------------------------------------------|
B|----------------------------------------------------------------------------|
G|----9---9---9-7---7---7--6-6-6-------9-----9-----9-7-----7----7-6-6-6-------|
D|----9---9---9-7---7---7--6-6-6-5-5-5-9-----9-----9-7-----7----7-6-6-6-5-5-5-|
A|----7---7---7-5---5---5--4-4-4-5-5-5-7-----7-----7-5-----5----5-4-4-4-5-5-5-|
E|-------------------------------3-3-3----------------------------------3-3-3-|

Gtr.1
Play Twice
e|----------------------------------------------------------------------------|
B|----------------------------------------------------------------------------|
G|-21-21-21-19-17-17-17-19-19-20-20-20-19-17-17-17-15-15-15-17-17/1917-17-17-|
D|----------------------------------------------------------------------------|
A|-19-19-19-17-15-15-15-17-17-18-18-18-17-15-15-15-13-13-13-15-15/1715-15-15-|
E|----------------------------------------------------------------------------|

Gtr.2
Play Twice
e|----------------------------------------------------------------------------|
B|----------------------------------------------------------------------------|
G|-17-17-17-16-14-14-14-16-16-17-17-17-15-13-13-13-12-12-12-10-10/1210-10-10-|
D|----------------------------------------------------------------------------|
A|-15-15-15-14-12-12-12-14-14-15-15-15-13-11-11-11-10-10-10--8--8/10-8--8--8-|
E|----------------------------------------------------------------------------|

Both Guitars
e|--------------------|
B|--------------------|
G|--------------------|
D|--5-5-5-5-4-4-4-4-3-|
A|--5-5-5-5-4-4-4-4-3-|
E|--3-3-3-3-2-2-2-2-1-|

Pick Scrape and then
Chorus:
This chorus has a third guitar overdub which jonny does live
Its only played the first two times though
Gtr.1
e|-S----------------0-----------------0-------|
B|--C-x-x-5-5-x-2-2---2-2-x-1-1-1-1-1---1-1-x-|
G|--xRx-x-5-5-x-3-3-----3-x-2-2-2-2-2-----2-x-| Play X4
D|--x-A-x-5-5-x-4-4-----4-x-3-3-3-3-3-----3-x-|
A|--x-xP--3-3-x-4-4-----4-x-3-3-3-3-3-----3-x-|
E|------E-------------------------------------|

Gtr.2
e|--------------------------------------------|
B|--x-x-x-5-5-x-2-2-----2-x-1-1-1-1-1-----1-x-|
G|--x-x-x-5-5-x-3-3-----3-x-2-2-2-2-2-----2-x-| Play X4
D|--x-x-x-5-5-x-4-4-----4-x-3-3-3-3-3-----3-x-|
A|--x-x-x-3-3-x-4-4-----4-x-3-3-3-3-3-----3-x-|
E|--------------2-2-----2---1-1-1-1-1-----1---|

Gtr.3 (The overdub, first two times only)
e|--------8-7-8-6-----------6-5-------5---5-6-|
B|----------------7---7---------6---6---6-----|
G|------------------6-------------5-----------| Play X2
D|--------------------------------------------|
A|--------------------------------------------|
E|--------------------------------------------|


Gtr.1 Trem picking
e|--------------------------------------------------|
B|--------------------------------------------------|
G|--5-5-5-7-8-8-8-10-11-11-11--13-14-14-14-16-16-16-|
D|--------------------------------------------------|
A|--3-3-3-5-6-6-6--8--9--9--9--11-12-12-12-14-14-14-|
E|--------------------------------------------------|

Gtr.2
e|--------------------------------------------------|
B|--5-5-x-x-8-8--x-x--7--7--x--x--10---10-x--x------|
G|--5-5-x-x-8-8--x-x--7--7--x--x--10---10-x--x------|
D|--5-5-x-x-8-8--x-x--7--7--x--x--10---10-x--x------|
A|--3-3-x-x-6-6--x-x--5--5--x--x---8----8-x--x------|
E|--------------------------------------------------|

Now This part is played X3 With Gtr.1 shifting up an Octave
The second and third time you play it.

Gtr.1 Trem picking
e|--8-8-8-10-11-11-11-13-14-14-14-16-17-17-17-19-|
B|-----------------------------------------------|
G|--5-5-5--7--8--8--8-10-11-11-11-13-14-14-14-16-|
D|-----------------------------------------------|
A|-----------------------------------------------|
E|-----------------------------------------------|

Gtr.2
e|--------------------------------------------|
B|--5-5-x---x-8-8--x-x---7--7--x--x--10---10--|
G|--5-5-x---x-8-8--x-x---7--7--x--x--10---10--|
D|--5-5-x---x-8-8--x-x---7--7--x--x--10---10--|
A|--3-3-x---x-6-6--x-x---5--5--x--x---8----8--|
E|--------------------------------------------|

Now this part is played with gtr.1 Still shifted up
an Octave.
Gtr.1
e|--20<<<<<<<<<<<<<<<<<<<<<<<<<<<<<<<<<|
B|-------------------------------------|
G|--17---------------------------------|
D|-------------------------------------|
A|-------------------------------------|
E|-------------------------------------|

Gtr.2
e|-------------------------------------|
B|-------------------------------------|
G|--5-5-5-5-x-----------------8-8-x-8--|
D|--5-5-5-5-x-8-8-8-x-7-7-7-x-8-8-x-8--|
A|--3-3-3-3-x-8-8-8-x-7-7-7-x-6-6-x-6--|
E|------------6-6-6-x-5-5-5-x----------|

Gtr.1                        *Octave pedal off
e|--20<<<<<<<<<<<<<<<<<<<<<<<*//////8--|
B|-------------------------------------|
G|-------------------------------------|
D|-------------------------------------|
A|-------------------------------------|
E|-------------------------------------|

Gtr.2
e|-------------------------------------|
B|-------------------------------------|
G|--5-5-5-5-x-----------------8-8-x-8--|
D|--5-5-5-5-x-8-8-8-x-7-7-7-x-8-8-x-8--|
A|--3-3-3-3-x-8-8-8-x-7-7-7-x-6-6-x-6--|
E|------------6-6-6-x-5-5-5-x----------|

Solo:
For the Solo I'm just gonna put The Chord names
for the second guitar over the first guitar
because it's easier.
The chords are:

C  x355xx
A# 688xxx
A  577xxx
D# x688xx

Gtr.1
    C        A#       A       D#
e|-------------------------------------|
B|-------------------------------------|
G|--x-8--------------------------------|
D|--x-8--------------------------------|
A|--x-6--------------------------------|
E|-------------------------------------|



Gtr.1
    C        A#       A       D#
e|-------------------------------------|
B|-------------------------------------|
G|--8-8-8-8-8-8-8-8-8-8-8-8-8-8-8-8-8--|
D|-------------------------------------|
A|-------------------------------------|
E|-------------------------------------|

Gtr.1
    C                 A#          A            D#
e|---------------------------------------------8p6-------------|
B|-------------------------------------------------8p7p6-------|
G|--5h8p5-------5h8p5-------5h8p5------5h8p5-------------8p5---|
D|--------8/10--------8/10--------8/10-------8---------------8-|
A|-------------------------------------------------------------|
E|-------------------------------------------------------------|

Gtr.1
    C              A#          A            D#
e|-------------------------------------------------------------|
B|------------------------------------------6-6-6-6-6-6-6-6-6--|
G|--8p5------5h8p5-------5h8p5------5h8p5----------------------|
D|------8/10-------8/10--------8/10-------8--------------------|
A|-------------------------------------------------------------|
E|-------------------------------------------------------------|

Gtr.1
    C                 A#          A            D#
e|---------------------------------------------11-6------------|
B|--------------------------------------------------8-6--------|
G|--5h8p5-------5h8p5-------5h8p5------5h8p5------------7p5----|
D|--------8/10--------8/10--------8/10-------8-----------------|
A|-------------------------------------------------------------|
E|-------------------------------------------------------------|

Gtr.1
    C               A#         A\\\
e|--------------------------------------|
B|--------------------------------------|
G|--8p5-------5h8p5------5h8p5----------|
D|------8/10--------8/10-------8/10(0)-|
A|--------------------------------------|
E|--------------------------------------|
Guitar Tabs FROM THE TOP 60 ARTISTS
1.  AC/DC Guitar Tabs
2.  AEROSMITH Guitar Tabs
3.  ALANIS MORISSETTE Guitar Tabs
4.  BEATLES Guitar Tabs
5.  BLINK 182 Guitar Tabs
6.  BOB DYLAN Guitar Tabs
7.  BOB MARLEY Guitar Tabs
8.  BUSH Guitar Tabs
9.  COLDPLAY Guitar Tabs
10.  DAVE MATTHEWS Guitar Tabs
11.  ERIC CLAPTON Guitar Tabs
12.  GRATEFUL Dead Guitar Tabs
13.  GREEN DAY Guitar Tabs
14.  IRON MAIDEN Guitar Tabs
15.  JACK JOHNSON Guitar Tabs
16.  JIMI HENDRIX Guitar Tabs
17.  JOHN MAYER Guitar Tabs
18.  JOHNNY CASH Guitar Tabs
19.  LED ZEPPELIN Guitar Tabs
20.  LIMP BIZKIT Guitar Tabs
21.  METALLICA Guitar Tabs
22.  NEIL YOUNG Guitar Tabs
23.  NIRVANA Guitar Tabs
24.  PEARL JAM Guitar Tabs
25.  PINK FLOYD Guitar Tabs
26.  RADIOHEAD Guitar Tabs
27  RED HOT CHILI PEPPERS Guitar Tabs
28  ROLLING STONES Guitar Tabs
29  STONE TEMPLE PILOTS Guitar Tabs
30  U2 Guitar Tabs
31.  VAN HALEN Guitar Tabs
32.  WEEZER Guitar Tabs