Guitar Resources


Karma Police (By RADIOHEAD)
 
"Karma Police"
RADIOHEAD, from 'ok computer'

original by: OJ Lim
corrections: L Guillemot <lg@dumbo.univ-poitiers.fr>
             J-P Stacey <wadh0269@sable.ox.ac.uk>
             A. Morse <amorse@waterw.com>
             D. Meijer <dm@zip.cm.au>
             Matt <scherdin@warwick.net>

**********

Intro:  Am D/F# Em G
        Am F Em G
        Am D
        G G/F#, C, C/B
        Am, Bm, D


Am  D/F#    Em
Kar_ma     Police,
  G             Am
arrest this man,
   F    Em
he talks in maths,
   G                 Am
he buzzes like a fridge
     D  G         C   C/B  Am   Bm   D
he's like a detuned ra_di____o.

Am  D/F# Em
Kar_ma    Police,
  G             Am
arrest this girl,
    F     Em
her hitler hairdo,
   G                    Am
is making me feel ill,
    D         G                 C   C/B  Am   Bm   D
and we have crashed her par_ty____.

C       D           G   F#
this is what you'll get,
C       D           G   F#
this is what you'll get,
C       D           G
this is what you'll get,
         Bm        C    Bm  D
when you mess with us...

Am  D/F#   Em
Kar_ma    Police,
     G       Am
I've given all I can,
     F    Em
it's not   enough,
     G       Am
I've given all I can,
    D             G      C C/B Am   Bm   D
but we're still on the pay___roll.

C       D           G   F#
this is what you'll get,
C       D           G   F#
this is what you'll get,
C       D           G
this is what you'll get,
         Bm        C    Bm  D
when you mess with us...

Bm        D          G
And for a minute there,
  D      G      D      E7
I lost myself I lost myself,
Bm          D        G
And for a minute there,
  D      G      D      E7
I lost myself I lost myself,

Bm        D          G
And for a minute there,
  D      G      D      E7
I lost myself I lost myself,
Bm          D        G
Just for a minute there,
  D      G      D      E7
I lost myself I lost myself 


Chords:
      EADGBE
D/F#: 2x0232
G/F#: 200033
C/B:  x20010
E7:   020100
Bm:   X24432

---

"Karma Police" by Radiohead.
From "Ok Computer"
Transcribed by Steven McGovern <srmcg@hotmail.com>

Intro and Verse:
   Am   Am/F# Em    G   Am  F   Em    G   Am  D  G  C C/B Am  Bm  D
e--0----0----0-----3---0-------0-----3---0---2--3------------2---2-------
B--1----1----0-----0---1---1---0-----0---1---3--3--1--1--1---3---3-------
G--2----2----0-----0---2---2---0-----0---2---2--0--0--0--2---4---2-------
D--2----0----2-----0---2---3---2-----0---2---0--0--2--0--2---4---0-------
A--0---------2-----2---0---3---2-----2---0------2--3--2--0---2-----------
E-------2----0---2-3-----------0---2-3----------3------------------------

Here are the chords. Im not going to tab out the strumming because its 
pretty easy to figure out.

Verse:
[-----x2-----]
   C   D  G   F# C  D  Bm  C  Bm D
e------2--3---2-----2--2---2--2---------------------------------------
B--1---3--3---2--1--3--3---1--3--3---------------------------------------
G--0---2--4---3--0--2--4---0--4--2---------------------------------------
D--2---0--5---4--2--0--4---2--4--0---------------------------------------
A--3------5---4--3-----2---3--2------------------------------------------
E---------3---2-----------------------------------------------------------

Outro:
    [repeatx2]
  Bm D  G        D  E
e-2--2--3--------2--0----------------------------------------------------
B-3--3--3---3----3--0----------------------------------------------------
G-4--2--0---0----2--1----------------------------------------------------
D-4--0--0---0----0--2----------------------------------------------------
A-2-------0-2-------2----------------------------------------------------
E-------3-0---3-----0----------------------------------------------------


Guitar Tabs FROM THE TOP 60 ARTISTS
1.  AC/DC Guitar Tabs
2.  AEROSMITH Guitar Tabs
3.  ALANIS MORISSETTE Guitar Tabs
4.  BEATLES Guitar Tabs
5.  BLINK 182 Guitar Tabs
6.  BOB DYLAN Guitar Tabs
7.  BOB MARLEY Guitar Tabs
8.  BUSH Guitar Tabs
9.  COLDPLAY Guitar Tabs
10.  DAVE MATTHEWS Guitar Tabs
11.  ERIC CLAPTON Guitar Tabs
12.  GRATEFUL Dead Guitar Tabs
13.  GREEN DAY Guitar Tabs
14.  IRON MAIDEN Guitar Tabs
15.  JACK JOHNSON Guitar Tabs
16.  JIMI HENDRIX Guitar Tabs
17.  JOHN MAYER Guitar Tabs
18.  JOHNNY CASH Guitar Tabs
19.  LED ZEPPELIN Guitar Tabs
20.  LIMP BIZKIT Guitar Tabs
21.  METALLICA Guitar Tabs
22.  NEIL YOUNG Guitar Tabs
23.  NIRVANA Guitar Tabs
24.  PEARL JAM Guitar Tabs
25.  PINK FLOYD Guitar Tabs
26.  RADIOHEAD Guitar Tabs
27  RED HOT CHILI PEPPERS Guitar Tabs
28  ROLLING STONES Guitar Tabs
29  STONE TEMPLE PILOTS Guitar Tabs
30  U2 Guitar Tabs
31.  VAN HALEN Guitar Tabs
32.  WEEZER Guitar Tabs