Guitar Resources


Knives Out (By RADIOHEAD)
 
Date: Tue, 19 Jun 2001 11:54:40 -0400
From: "Andrew Morrison" <twisteddisturbed@hotmail.com>
Subject: r/radiohead/knives_out.tab

Song: Knives Out
Artist: Radiohead
Album: Amnesiac
Tabbed By Andy Morrison

Phew. This was a long tab, there are parts I didn't check
over, so theres likely to be mistakes.  But improvise round
it ( improvise- my way of saying I couldn't be arsed, tab it
yourself ;P).  It sounds accurate that's the main thing.
But do enjoy, have fun (and other encouraging words).

Legend

P.M.- Palm Muted
PP- Play very softly
P- Play softly

Intro

E-------------------------------------------------------------------
B---------8-8----------8-8---------4-4---------------4--------4-----
G-----8-8-----8----7-7-----7---5-5-----5-------5-5---------5----5---
D------------------------------------------5-5-----5-----5---5----5-
A-------------------------------------------------------------------
E---8------------6-----------4-----------4-------------4------------

E-------------------------------0---------------0------------- |
B-------3-3---------3-3-----------3-2---------3---3-2--------- |
G---3-3-----3---2-2-----2---0-0-------0-----0-----------0----- |
D------------------------------------------------------------- |
A---------------------------------------0-------------0---0--- |
E-3-----------1-----------0---------------0-----------------0- |

Verse 1

E----------------------------------------------------------------
B-------8-8---------8-8---------4-4----------------4-------------
G---8-8-----8---7-7-----7---5-5-----5--------5-5-----------5-5---
D----------------------------------------5-5-----5-----5-5-----5-
A----------------------------------------------------------------
E-8-----------6-----------4-----------4--------------4-----------

E----------------------------------------------------------------
B-------3-3---------3-3---------2-2------------------------------
G---3-3-----3---2-2-----2---0-0-----0-------0-0---------------0--
D---------------------------------------2-2-----2-------2-2------
A---------------------------------------------------2-2-----2----
E-3-----------1-----------0-----------0-----------0--------------
                                                   |_______|
                                                    P.M.
              Verse 2
E--------- | -----------------------------------------------------
B--------- | ---------8-8---------8-8---------4-4-----------4---4-
G---0----- | -----8-8-----8---7-7-----7---5-5-----5-----------5---
D--------- | ---------------------------------------5---5-5-------
A-2------- | -----------------------------------------------------
E-----2-3- | --/8-----------6-----------4-------------4-----------


E-3-------------------------------------0---------------------
B---4---4-------3-3---------3-3-------3---3-------------------
G-----5-----3-3-----3---2-2-----2---0-------0-----------------
D---------------------------------------------2---2---2---2-0-
A-----------------------------------------------2-------2-----
E---------3-----------1-----------------------------0---------
                       |_________|           |_______|
                        PP                    P
             Chorus
E--------- | --------------------------------------------------
B--------- | -1-------2-------2---3-5-6-------7-------7---8-10-
G--------- | ---2-------2-------2-------7-------7-------7------
D--------- | -----2-------2---------------7-------7------------
A-4---0--- | -------0-------0---------------0-------0----------
E---0---0- | --------------------------------------------------

E---------------------------3-3-----3-3-----------------
B-------------------------------------------------------
G-12-12-------12-12----12-------------------0-----------
D-12----------------12----5-----5-------4-2-------------
A-10----10----------------5-----5-------4-2-----5---5---
E-10-------10-------------3-----3-3-----2-0---0---0---0-
0
                                      Verse 3
E-------------------------------- | ---------6---------------6-
B-------------------------------- | -----8-----8---8-----8-----
G---------0--------------------0- | ---8---8-----8-----7---7---
D-------------------------------- | ---------------------------
A-4-4-2-2-----5---5----4-4-2-2--- | ---------------------------
E-0-0-0-0---0---0---0--0-0-0-0--- | -8---------------6---------

E---------------3---------3-------4-3-------------1-------
B-8---8-----4-----4---4-------4-------4-------3-----3---3-
G---7-----5---5-----5---5---5---5-------5---3---3-----3---
D---------------------------------------------------------
A---------------------------------------------------------
E-------4---------------------------------1---------------

E---------1---------------------0-------------------0-------
B-----3-----3---3-----2-------3---3-2-----------2-3---3-2---
G---2---2-----2-----0---0---0---------0-------0-----------0-
D-----------------------------------------------------------
A-------------------------0-------------0---0---------------
E-1---------------0-----------------------0-----------------

  Verse 4
E----------8----------------6-------------3---------3-----4-
B-----11-----11---8-----8-----7-------4-----4---4-----4-----
G---8----8------8-----7---7-----8---5---5-----5---------5---
D-------------------------------------------------5---------
A-----------------------------------------------------------
E-8-----------------6-------------4-------------------------

E-3---------------1---------------1-------------0-------------
B---4---------3-----3---3-----3-----3---3---------3-2---------
G-----5-----3---3-----3-----2---2-----2-------0-------0-------
D-------5-------------------------------------------------2---
A-------------------------------------------0---------------2-
E---------3---------------1---------------0-------------0-----

                                                 Chorus 2
                                                 _______________
                                        Fig. 1   |
E--------------------------------------------- | ---------------
B-------------------------------------0-2-3-5- | -------1-------
G-0-----0-------0-----------0---0---0--------- | -----2---2-----
D---2-------2-----2-----2--------------------- | ---2-------2---
A-----2---2---2-----2-2---2---2---2----------- | -0-----------0-
E--------------------------------------------- | ---------------
_______________________________________________________________
|                                                              |
E--------------------------------------------------------------
B-----2-----------2-3-5-6-------6-----------7------------------
G---2---2-------2-------------7---7-------7---7-------7-7-9-11-
D-2-------2---2-------------7-------7---7-------7---7----------
A-----------0-------------0-----------0-----------0------------
E--------------------------------------------------------------
_________________________________________
|                                       |
E----------------------------------3---3-3---------------------
B--------------------------------3-----------------------------
G-12-12-12-------12-12----12-------------------0---------------
D-12-------------------12----5-------5-------2---2-0-------0---
A-10-------10----------------5-5-----5---------------4-2-4-----
E-10----------10-------------3-3-----3-----0-----------------0-

                     Verse 5 (Guitar One)
E----------------- | -----------------------------------------
B----------------- | -------8-8---------8-8---------4-4-------
G---0------------- | ---8-8-----8---7-7-----7---5-5-----5-----
D-2---2-0--------- | -------------------------------------5---
A---------5-4-2-0- | -----------------------------------------
E----------------- | -8-----------6-----------4-------------4-

E-----------------------------------------------------------------
B-----------4-------------3-3---------3-3---------2-2-------------
G-----5-5-----5---5---3-3-----3---2-2-----2---0-0-----0-------0-0-
D-5-5-----5-----5-----------------------------------------2-2-----
A-----------------------------------------------------------------
E-------------------3-----------1-----------0-----------0---------

Guitar two bascially improvises around guitar one's playing.  So I've
done some tabbing to give you an idea of the notes guitar two plays
,so you can improvise on the next verses. (Same for Guitar three)

                             Verse 5 (Guitar Two)
E------------------------- | ---------------------6-6---4-4-----4---
B------------------------- | -8-----8-8-------8-8-----8-----8-----8-
G---------------0---0----- | ---8-8-----8-87-----------------8-----
D-2-------2-2---------2--- | ---------------------------------------
A-----2-2-----2---------2- | ---------------------------------------
E---0--------------------- | ---------------------------------------
     |_______|
       P.M.

E---4-----4---------------------------------------------------------3-
B-----8-----8---8-----3-3---------3-3-------2---2---2---2---2---2-----
G-8-----8-----8---3-3-----3-3-2-2-----2-2-----------------------------
D-----------------------------------------0---0---0---0---0---0---0---
A---------------------------------------------------------------------
E---------------------------------------------------------------------

                                       Verse 5 (Guitar Three)
E---------------------------3------- | -------------------------------
B---2---2---2---2---2---2-------2--- | -------------------------------
G----------------------------------- | -------------------------------
D-0---0---0---0---0---0---0---0---0- | -3-3-1-1-1---------6-6-5-3-3-1-
A----------------------------------- | -----------5-5-5-6-------------
E----------------------------------- | -------------------------------

                                        Verse 6
E------------------------------------- | -----------------------------
B------------------------------------- | -------8-8-----------8-8-----
G------------------------------------- | ---8-8-----8-8---7-7-----7-7-
D-3-3-2-2/9-9-10-10-3-3-2-2/9-9-10-10- | -----------------------------
A------------------------------------- | -----------------------------
E------------------------------------- | -8-------------6-------------

E-------------------------------------------------------------------
B-------4-4-----------------4---4---------3-3---------3-3-----------
G---5-5-----5---------5-5-----5---5---3-3-----3---2-2-----2---------
D-------------5---5-5-----5-------------------------------------0---
A-------------------------------------------------------------4---4-
E-4-------------4-------------------3-----------1-----------0-------

                                 Verse 7
E----------------------------- | -------------------------------------
B----------------------------- | -------8-8-----------8-8-----------4-
G----------------------------- | ---8-8-----8-8---7-7-----7-7---5-5---
D-0---0---0---0---0---0---0--- | -------------------------------------
A---4---4---4---4---4---4---4- | -------------------------------------
E----------------------------- | -8-------------6-------------4-------

E-------------------3---------------------------------------------
B-4-------------------4-----------3-3---------3-3---------2-2-----
G---5---------5-5-------5-----3-3-----3---2-2-----2---0-0-----0-0-
D-----5---5-5-----5-------5---------------------------------------
A-----------------------------------------------------------------
E-------4-------------------3-----------1-----------0-------------

                                               Verse 8
E------------------------------------------- | ------------6---------
B-3-2---------0---0---0--------------------- | ---11---8-------8---4-
G-----0------------------------------------- | ------8-------7-------
D-----------2---2---2---2---2---2---2---2--- | ----------------------
A-------0-----------------2---2---5---0---3- | ----------------------
E---------0--------------------------------- | -8--------6-------4---

E-----------------------------------------------------------------
B---------4-------4-----4---------4---------3-3-----------3-3-----
G---5---------5-------5---5---5-----5---3-3-----3-3---2-2-----2-2-
D-5-----5---5---5---5-------5---5---------------------------------
A-----------------------------------------------------------------
E-----4-------------------------------3-------------3-------------

E---------------------------------0---------------------------------
B-----------------------------3-2---3-2-----------------------------
G---------------------------------------0---------------------------
D-----3---3---3---3---3---3-------------------3---3---3---3---3---3-
A---2---2---2---2---2---2---2---------------2---2---2---2---2---2---
E-0---------------------------------------0-------------------------

E------------- |                  |--------------------------- |
B---------2--- |                  |-----3---0---2-3-----3---0- |
G-----------0- | Repeat Chorus 2  |---0---0---0-------0---0--- |
D-----2------- | as indictated by |--------------------------- |
A-2-2---2----- | Fig.1            |--------------------------- |
E------------- |                  |-0---------------0--------- |
Guitar Tabs FROM THE TOP 60 ARTISTS
1.  AC/DC Guitar Tabs
2.  AEROSMITH Guitar Tabs
3.  ALANIS MORISSETTE Guitar Tabs
4.  BEATLES Guitar Tabs
5.  BLINK 182 Guitar Tabs
6.  BOB DYLAN Guitar Tabs
7.  BOB MARLEY Guitar Tabs
8.  BUSH Guitar Tabs
9.  COLDPLAY Guitar Tabs
10.  DAVE MATTHEWS Guitar Tabs
11.  ERIC CLAPTON Guitar Tabs
12.  GRATEFUL Dead Guitar Tabs
13.  GREEN DAY Guitar Tabs
14.  IRON MAIDEN Guitar Tabs
15.  JACK JOHNSON Guitar Tabs
16.  JIMI HENDRIX Guitar Tabs
17.  JOHN MAYER Guitar Tabs
18.  JOHNNY CASH Guitar Tabs
19.  LED ZEPPELIN Guitar Tabs
20.  LIMP BIZKIT Guitar Tabs
21.  METALLICA Guitar Tabs
22.  NEIL YOUNG Guitar Tabs
23.  NIRVANA Guitar Tabs
24.  PEARL JAM Guitar Tabs
25.  PINK FLOYD Guitar Tabs
26.  RADIOHEAD Guitar Tabs
27  RED HOT CHILI PEPPERS Guitar Tabs
28  ROLLING STONES Guitar Tabs
29  STONE TEMPLE PILOTS Guitar Tabs
30  U2 Guitar Tabs
31.  VAN HALEN Guitar Tabs
32.  WEEZER Guitar Tabs