Guitar Resources


My Iron Lung (2) (By RADIOHEAD)
 
by: Kenneth M

This is only the cool part of the song, the realy fat part, the part that rocks! 
the rest is already tabbed but I didn't find this part, so here it is:


E||------------------------------|--------------|
B||------------------------------|--------------|
G||--------3^--------3^--5--5--3^|--0h3-0h3--0--|
D||--5--5------5--5------5--5----|--------------|
A||--5--5------5--5------3--3----|--------------|
E||--3--3------3--3--------------|--------------|


--------------------|--------------------------|
--------------------|-8--7--6--5--4-4-4--3-3-3-|
--------3^--------3^|--------------------------|
--2---2------2--2---|--------------------------|
--2---2------2--2---|--------------------------|
--0---0------0--0---|--------------------------|


------------------------------|--------------|
------------------------------|--------------|
--------3^--------3^--5--5--3^|--0h3-0h3--0--|
--5--5------5--5------5--5----|--------------|
--5--5------5--5------3--3----|--------------|
--3--3------3--3--------------|--------------|


--------------------|--------------------------|
--------------------|-8--7--6--5--4-4-4--3-3-3-|
--------3^--------3^|--------------------------|
--2---2------2--2---|--------------------------|
--2---2------2--2---|--------------------------|
--0---0------0--0---|--------------------------|
and so on...I don't know exactly how many times you've got to play this, 
but you can figure it out by yourself


you have to listen to the CD for the right ritme, but this is the right tab!


^ = bend and release
h = hammer on (the hammer on is played very quickly)

ENJOY!!!
Guitar Tabs FROM THE TOP 60 ARTISTS
1.  AC/DC Guitar Tabs
2.  AEROSMITH Guitar Tabs
3.  ALANIS MORISSETTE Guitar Tabs
4.  BEATLES Guitar Tabs
5.  BLINK 182 Guitar Tabs
6.  BOB DYLAN Guitar Tabs
7.  BOB MARLEY Guitar Tabs
8.  BUSH Guitar Tabs
9.  COLDPLAY Guitar Tabs
10.  DAVE MATTHEWS Guitar Tabs
11.  ERIC CLAPTON Guitar Tabs
12.  GRATEFUL Dead Guitar Tabs
13.  GREEN DAY Guitar Tabs
14.  IRON MAIDEN Guitar Tabs
15.  JACK JOHNSON Guitar Tabs
16.  JIMI HENDRIX Guitar Tabs
17.  JOHN MAYER Guitar Tabs
18.  JOHNNY CASH Guitar Tabs
19.  LED ZEPPELIN Guitar Tabs
20.  LIMP BIZKIT Guitar Tabs
21.  METALLICA Guitar Tabs
22.  NEIL YOUNG Guitar Tabs
23.  NIRVANA Guitar Tabs
24.  PEARL JAM Guitar Tabs
25.  PINK FLOYD Guitar Tabs
26.  RADIOHEAD Guitar Tabs
27  RED HOT CHILI PEPPERS Guitar Tabs
28  ROLLING STONES Guitar Tabs
29  STONE TEMPLE PILOTS Guitar Tabs
30  U2 Guitar Tabs
31.  VAN HALEN Guitar Tabs
32.  WEEZER Guitar Tabs