Guitar Resources


Myxomatosis (By RADIOHEAD)
 
Date: Tue, 3 Sep 2002 13:38:31 EDT
From: LolCreem@aol.com
Subject: r/radiohead/myxomatosis.tab

RADIOHEAD
"Myxomatosis"
Unreleased (as of 9/3/02)
Written By: Thom Yorke
Guitarist: Ed O'Brien
Tabbed By: Mr. Ranks (E-mail=lolcreem@aol.com)
(No work here but my own, of course)

Ok, this song premeired when Radiohead did their mini tour
of Spain and Portugal, but I think it has been around since
the Kid A days. The lead is played by Ed O'Brien on a
Les Paul I think, and it is SUPER distorted. I get the almost
exact sound when i connect my boss Heavy Metal pedal to my
Boss Distortion. Sounds great. You also need to drop the low
E string to B (yes, B!!!.) From there, the lead guitar
plays these two basic parts, one after the other through-out
the whole song:


E-------------------------------------------------------------------
B-------------------------------------------------------------------
G-------------------------------------------------------------------
D-------------------------------------------------------------------
A---------------------------------------------------2---3-----------
B---8---5---7---3---5---1---3---0---1-------------------------------


E-------------------------------------------------------------------
B-------------------------------------------------------------------
G-------------------------------------------------------------------
D-------------------------------------------------------------------
A-----------------------------------------------------5---0---2-----
B---8---5---7---3---5----/10----7----5----------------------------
Guitar Tabs FROM THE TOP 60 ARTISTS
1.  AC/DC Guitar Tabs
2.  AEROSMITH Guitar Tabs
3.  ALANIS MORISSETTE Guitar Tabs
4.  BEATLES Guitar Tabs
5.  BLINK 182 Guitar Tabs
6.  BOB DYLAN Guitar Tabs
7.  BOB MARLEY Guitar Tabs
8.  BUSH Guitar Tabs
9.  COLDPLAY Guitar Tabs
10.  DAVE MATTHEWS Guitar Tabs
11.  ERIC CLAPTON Guitar Tabs
12.  GRATEFUL Dead Guitar Tabs
13.  GREEN DAY Guitar Tabs
14.  IRON MAIDEN Guitar Tabs
15.  JACK JOHNSON Guitar Tabs
16.  JIMI HENDRIX Guitar Tabs
17.  JOHN MAYER Guitar Tabs
18.  JOHNNY CASH Guitar Tabs
19.  LED ZEPPELIN Guitar Tabs
20.  LIMP BIZKIT Guitar Tabs
21.  METALLICA Guitar Tabs
22.  NEIL YOUNG Guitar Tabs
23.  NIRVANA Guitar Tabs
24.  PEARL JAM Guitar Tabs
25.  PINK FLOYD Guitar Tabs
26.  RADIOHEAD Guitar Tabs
27  RED HOT CHILI PEPPERS Guitar Tabs
28  ROLLING STONES Guitar Tabs
29  STONE TEMPLE PILOTS Guitar Tabs
30  U2 Guitar Tabs
31.  VAN HALEN Guitar Tabs
32.  WEEZER Guitar Tabs