Guitar Resources


Scatterbrain (By RADIOHEAD)
 
Date: Mon, 20 Jan 2003 03:26:18 +0000
From: ben wilkinson <the_angry_sheepherder@hotmail.com>
Subject: r/radiohead/scatterbrain.tab

song title: SCATTERBRAIN
artist: RADIOHEAD
transcribed by: BEN WILKINSON
email: the_angry_sheepherder@hotmail.com

Tab for guitar (Jonny's part, guessing by the tone).
Transcribed from the LIVE version in San Sebastian - 30/07/02


INTRO:

Drums for 2 bars then...

    1   +   2   +   3   +   4   +   1   +   2   +   3   +   4   +
e -------------------------------------------------------------------
B ------7---------------5---------------3---------------2------------
G ----4-------------------------------0------------------------------
D --------------------2-------------------------------4--------------   x2
A --5---------------4---------------2---------------0----------------
E -------------------------------------------------------------------


VERSE: (4/4, 4/4, 4/4, 2/4) - play verse x4

    1   +   2   +   3   +   4   +   1   +   2   +   3   +   4   +
e -------------------------------------------------------------------
B ------7---------------5---------------3---------------2------------
G ----4-------------------------------0------------------------------
D --------------------2-------------------------------4--------------
A --5---------------4---------------2---------------0----------------
E -------------------------------------------------------------------


    1   +   2   +   3   +   4   +   1   +   2   +
e ---------------------------------------------------
B ---------------------------------------------------
G ------4---------------2---------------4-------6----
D ----3---------------4---------------3--------------
A ---------------------------------------------------
E --4---------------2---------------2----------------


CHORUS ONE:

    1   +   2   +   3   +   4   +   1   +   2   +   3   +   4   +
e ------1-------0-------3-------2---2---------------2-----------2----
B ------------------4---------------2---------------2-----------2----
G ----------------------------------2---------------2-2--------------
D ----2---------------4---------------------4---4-------2------------
A --0-----------------------------------4-------------------4--------
E -------------------------------------------------------------------


    1   +   2   +   3   +   4   +
e ------1-------0-------3-------2----
B ----1-------------4----------------
G -----------------------------------
D --------------------4--------------
A --0--------------------------------
E -----------------------------------


** REPEAT VERSE **


CHORUS TWO / ENDING:

    1   +   2   +   3   +   4   +   1   +   2   +   3   +   4   +
e -------------------------------------------------------------------
B ------3-------2-------5-------4-----------5---------------4--------
G --------------------------------------------6---------4-----4------
D ----4---------------6---------------6---------6-----6---------6----
A --0--------(0)----3--------(3)----4--------------------------------
E --------------------------------------------------7----------------


    1   +   2   +   3   +   4   +   1   +   2   +   3   +   4   +
e ----------------------------------------------------------7--------
B ------3-------2-------5-------4-------5---------------------9------
G ----------------------------------------------6---------------9----
D ----4---------------6---------------6------------------------------   x5
A --0--------(0)----3--------(3)----4---------------7----------------
E -------------------------------------------------------------------


    1   +   2   +   3   +   4   +   1   +   2   +   3   +   4   +
e -------------------------------------------------------------------
B ------3-------2-------5-------4------------------------------------
G -------------------------------------------------------------------
D ----4---------------6----------------------------------------------
A --0--------(0)----3--------(3)----4--------------------------------
E -------------------------------------------------------------------


Ed carries on for a bit - I can't be bothered tabbing his part though :-p


THE END :-)
B.
Guitar Tabs FROM THE TOP 60 ARTISTS
1.  AC/DC Guitar Tabs
2.  AEROSMITH Guitar Tabs
3.  ALANIS MORISSETTE Guitar Tabs
4.  BEATLES Guitar Tabs
5.  BLINK 182 Guitar Tabs
6.  BOB DYLAN Guitar Tabs
7.  BOB MARLEY Guitar Tabs
8.  BUSH Guitar Tabs
9.  COLDPLAY Guitar Tabs
10.  DAVE MATTHEWS Guitar Tabs
11.  ERIC CLAPTON Guitar Tabs
12.  GRATEFUL Dead Guitar Tabs
13.  GREEN DAY Guitar Tabs
14.  IRON MAIDEN Guitar Tabs
15.  JACK JOHNSON Guitar Tabs
16.  JIMI HENDRIX Guitar Tabs
17.  JOHN MAYER Guitar Tabs
18.  JOHNNY CASH Guitar Tabs
19.  LED ZEPPELIN Guitar Tabs
20.  LIMP BIZKIT Guitar Tabs
21.  METALLICA Guitar Tabs
22.  NEIL YOUNG Guitar Tabs
23.  NIRVANA Guitar Tabs
24.  PEARL JAM Guitar Tabs
25.  PINK FLOYD Guitar Tabs
26.  RADIOHEAD Guitar Tabs
27  RED HOT CHILI PEPPERS Guitar Tabs
28  ROLLING STONES Guitar Tabs
29  STONE TEMPLE PILOTS Guitar Tabs
30  U2 Guitar Tabs
31.  VAN HALEN Guitar Tabs
32.  WEEZER Guitar Tabs