Guitar Resources


True Love Waits (3) (By RADIOHEAD)
 
From: "Dan Sorajja" <ds127324@bcm.tmc.edu>
From: "Andrew Morrison" <twisteddisturbed@hotmail.com>
Subject: r/radiohead/true_love_waits.crd
Date: Sat, 30 Mar 2002 00:42:35 +0000


Artist: Radiohead
Song: True Love Waits
Album: I Might Be Wrong (The Live Recordings)
Tabbed By Andy Morrison

A great song that I had the privilege to see played live at the
Belfast concert. Yey!.

Intro/Verse 1

The song follows a similar strumming pattern
throughout. This is a rough idea of how to play it. It
goes for a kind of bass strumming technique, with
alternate up/down strumming.
                              x2                             x2
E-----0-----0---0-0---0-0---0-0- | ---0-----0---0-0---0-0---0-0-
B---0-0h1---1---1-1---1-1---1-1- | ---0h1---1---1-1---1-1---1-1-
G---0-0-----0---0-0---0-0---0-0- | -0-0-----0---0-0---0-0---0-0-
D---2-----2-2-2-----2-----2----- | -2-----2-2-2-----2-----2-----
A---3-----3-3-3-----3-----3----- | -2-----2-2-2-----2-----2-----
E---3-----3-3-3-----3-----3----- | -0-----0-0-0-----0-----0-----
                            x2
E---0-----0---0-0---0-0---0-0- | --4-----4-4-----4-4-----6---6-
B---0h1---1---1-1---1-1---1-1- | --4-----4-4-----4-4-----4---4-
G---2-----2---2-2---2-2---2-2- | 5-5-----5-5-----5-5---5-5---5-
D-2-----2-2-2-----2-----2----- | 6---6-6-----6-6-----6-4---4-4-
A-0-----0-0-0-----0-----0----- | 6---6-6-----6-6-----6-6---6-6-
E----------------------------- | 4---4-4-----4-4-----4-4---4-4-

E---6-6---6-6- |
B---4-4---4-4- |
G---5-5---5-5- |
D-4-----4----- |
A-6-----6----- |
E-4-----4----- |

Chorus

Heres the chords for the chorus play them in this order.
Use the same strumming pattern and hammer ons as in the verse.

E---0---0---0---0---0---0---0---3- |
B---1---1---1---1---1---1---1---3- |
G---0---2---0---0---2---0---2---4- |
D---2---3---2---2---3---2---2---5- |
A---3---X---2---3---X---2---0---5- |
E---3---1---0---3---1---0-------3- |

Verse 2

The verses change slighty with the playing of the high E.



                              x2                             x2
E-----0-----0---3-3---1-1---0-0- | ---0-----0---3-3---1-1---0-0-
B---0-0h1---1---1-1---1-1---1-1- | ---0h1---1---1-1---1-1---1-1-
G---0-0-----0---0-0---0-0---0-0- | -0-0-----0---0-0---0-0---0-0-
D---2-----2-2-2-----2-----2----- | -2-----2-2-2-----2-----2-----
A---3-----3-3-3-----3-----3----- | -2-----2-2-2-----2-----2-----
E---3-----3-3-3-----3-----3----- | -0-----0-0-0-----0-----0-----
                            x2
E---0-----0---3-3---1-1---0-0- | --4-----4-4-----4-4-----6---6-
B---0h1---1---1-1---1-1---1-1- | --4-----4-4-----4-4-----4---4-
G---2-----2---2-2---2-2---2-2- | 5-5-----5-5-----5-5---5-5---5-
D-2-----2-2-2-----2-----2----- | 6---6-6-----6-6-----6-4---4-4-
A-0-----0-0-0-----0-----0----- | 6---6-6-----6-6-----6-6---6-6-
E----------------------------- | 4---4-4-----4-4-----4-4---4-4-

E---6-6---6-6- |
B---4-4---4-4- |
G---5-5---5-5- |
D-4-----4----- |
A-6-----6----- |
E-4-----4----- |

Repeat the chorus using the changes that featured in verse 2

Play verse 3 (same as verse 2 with slightly different strumming).

Play these chords at the end of verse 3

E---6---1- |
B---8---1- |
G---8---2- |
D---8---3- |
A---6---3- |
E-------1- |

Verse 4

Chorus 3, then end on the C chord.

That's it! It sounds good to me, listen to the song and it should
become clear. ;)
Guitar Tabs FROM THE TOP 60 ARTISTS
1.  AC/DC Guitar Tabs
2.  AEROSMITH Guitar Tabs
3.  ALANIS MORISSETTE Guitar Tabs
4.  BEATLES Guitar Tabs
5.  BLINK 182 Guitar Tabs
6.  BOB DYLAN Guitar Tabs
7.  BOB MARLEY Guitar Tabs
8.  BUSH Guitar Tabs
9.  COLDPLAY Guitar Tabs
10.  DAVE MATTHEWS Guitar Tabs
11.  ERIC CLAPTON Guitar Tabs
12.  GRATEFUL Dead Guitar Tabs
13.  GREEN DAY Guitar Tabs
14.  IRON MAIDEN Guitar Tabs
15.  JACK JOHNSON Guitar Tabs
16.  JIMI HENDRIX Guitar Tabs
17.  JOHN MAYER Guitar Tabs
18.  JOHNNY CASH Guitar Tabs
19.  LED ZEPPELIN Guitar Tabs
20.  LIMP BIZKIT Guitar Tabs
21.  METALLICA Guitar Tabs
22.  NEIL YOUNG Guitar Tabs
23.  NIRVANA Guitar Tabs
24.  PEARL JAM Guitar Tabs
25.  PINK FLOYD Guitar Tabs
26.  RADIOHEAD Guitar Tabs
27  RED HOT CHILI PEPPERS Guitar Tabs
28  ROLLING STONES Guitar Tabs
29  STONE TEMPLE PILOTS Guitar Tabs
30  U2 Guitar Tabs
31.  VAN HALEN Guitar Tabs
32.  WEEZER Guitar Tabs