Guitar Resources


Aeroplane (By RED HOT CHILI PEPPERS)
 
Aeroplane                                     
The Red Hot Chilli Peppers
redsox@iol.ie


Guitar 1
                                                                             
E||----|--------3----------------|--3----------------|--5------6------------|
B||----|------6-6----------------|--3----------------|--3-----------3-------|
G||----|----3-3-3----------------|--3----------------|--3--------------3----|
D||----|--3-3-3-3----------------|--5----------------|--3-------------------|
A||----|--3-3-3-3----------------|--3----------------|--3-------------------|
E||----|-------------------------|-------------------|----------------------|


                                                                 
-------------------|--6------5----------3--|--3-----------------|
--5----------------|--3-----------6--------|--3-----------------|
--5----------------|--3--------------3-----|--5------------5----|
--5----------------|--3--------------------|--5-----------------|
--3----------------|--3--------------------|--3-----------------|
-------------------|-----------------------|--------------------|


                                                                           
-------------------|-------------------|--6-6-6-6-6-6-6-6-6-6-6-6-6-6-6-6-|
--3----------------|--5----------------|--6-6-6-6-6-6-6-6-6-6-6-6-6-6-6-6-|
--3----------------|--5----------------|--5-5-5-5-5-5-5-5-5-5-5-5-5-5-5-5-|
--3----------------|--5----------------|----------------------------------|
--3----------------|--3----------------|----------------------------------|
-------------------|-------------------|----------------------------------|


                                                                      
--6-6-6-6-6-6-6-6-6-6-6-6-6-6-6-6-|--6-6-6-6-6-6-6-6-6-6-6-6-6-6-6-6-|
--5-5-5-5-5-5-5-5-5-5-5-5-5-5-5-5-|--6-6-6-6-6-6-6-6-6-6-6-6-6-6-6-6-|
--5-5-5-5-5-5-5-5-5-5-5-5-5-5-5-5-|--5-5-5-5-5-5-5-5-5-5-5-5-5-5-5-5-|
----------------------------------|----------------------------------|
----------------------------------|----------------------------------|
----------------------------------|----------------------------------|


                                                                      
--6-6-6-6-6-6-6-6-6-6-6-6-6-6-6-6-|--6-6-6-6-6-6-6-6-6-6-6-6-6-6-6-6-|
--5-5-5-5-5-5-5-5-5-5-5-5-5-5-5-5-|--6-6-6-6-6-6-6-6-6-6-6-6-6-6-6-6-|
--5-5-5-5-5-5-5-5-5-5-5-5-5-5-5-5-|--5-5-5-5-5-5-5-5-5-5-5-5-5-5-5-5-|
----------------------------------|----------------------------------|
----------------------------------|----------------------------------|
----------------------------------|----------------------------------|


                                                                      
--6-6-6-6-6-6-6-6-6-6-6-6-6-6-6-6-|--6-6-6-6-6-6-6-6-6-6-6-6-6-6-6-6-|
--5-5-5-5-5-5-5-5-5-5-5-5-5-5-5-5-|--6-6-6-6-6-6-6-6-6-6-6-6-6-6-6-6-|
--5-5-5-5-5-5-5-5-5-5-5-5-5-5-5-5-|--5-5-5-5-5-5-5-5-5-5-5-5-5-5-5-5-|
----------------------------------|----------------------------------|
----------------------------------|----------------------------------|
----------------------------------|----------------------------------|


                                                                      
--6-6-6-6-6-6-6-6-6-6-6-6-6-6-6-6-|--6-6-6-6-6-6-6-6-6-6-6-6-6-6-6-6-|
--5-5-5-5-5-5-5-5-5-5-5-5-5-5-5-5-|--6-6-6-6-6-6-6-6-6-6-6-6-6-6-6-6-|
--5-5-5-5-5-5-5-5-5-5-5-5-5-5-5-5-|--5-5-5-5-5-5-5-5-5-5-5-5-5-5-5-5-|
----------------------------------|----------------------------------|
----------------------------------|----------------------------------|
----------------------------------|----------------------------------|


                                                                      
--6-6-6-6-6-6-6-6-6-6-6-6-6-6-6-6-|--6-6-6-6-6-6-6-6-6-6-6-6-6-6-6-6-|
--5-5-5-5-5-5-5-5-5-5-5-5-5-5-5-5-|--6-6-6-6-6-6-6-6-6-6-6-6-6-6-6-6-|
--5-5-5-5-5-5-5-5-5-5-5-5-5-5-5-5-|--5-5-5-5-5-5-5-5-5-5-5-5-5-5-5-5-|
----------------------------------|----------------------------------|
----------------------------------|----------------------------------|
----------------------------------|----------------------------------|


                                                               
--6-6-6-6-6-6-6-6-6-6-6-6----x-x-|--18--x-18-----18--x-18-----|
--5-5-5-5-5-5-5-5-5-5-5-5----x-x-|--18--x-18-----18--x-18-----|
--5-5-5-5-5-5-5-5-5-5-5-5-x------|----------------------------|
---------------------------------|----------------------------|
---------------------------------|----------------------------|
---------------------------------|----------------------------|


                                                          
--18--x-18-----18--x-18-----|--18--x-18-----18--x-18-----|
--17--x-17-----17--x-17-----|--18--x-18-----18--x-18-----|
----------------------------|----------------------------|
----------------------------|----------------------------|
----------------------------|----------------------------|
----------------------------|----------------------------|


                                                          
--18--x-18-----18--x-18-----|--18--x-18-----18--x-18-----|
--17--x-17-----17--x-17-----|--18--x-18-----18--x-18-----|
----------------------------|----------------------------|
----------------------------|----------------------------|
----------------------------|----------------------------|
----------------------------|----------------------------|


                                                          
--18--x-18-----18--x-18-----|--18--x-18-----18--x-18-----|
--17--x-17-----17--x-17-----|--18--x-18-----18--x-18-----|
----------------------------|----------------------------|
----------------------------|----------------------------|
----------------------------|----------------------------|
----------------------------|----------------------------|


                                                          
--18--x-18------------------|--18--x-18-----18--x-18-----|
--17--x-17----0----0-0------|--18--x-18-----18--x-18-----|
--------------0-x--0-0-x----|----------------------------|
----------------x------x----|----------------------------|
----------------------------|----------------------------|
----------------------------|----------------------------|


                                                          
--18--x-18-----18--x-18-----|--18--x-18-----18--x-18-----|
--17--x-17-----17--x-17-----|--18--x-18-----18--x-18-----|
----------------------------|----------------------------|
----------------------------|----------------------------|
----------------------------|----------------------------|
----------------------------|----------------------------|


                                                          
--18--x-18-----18--x-18-----|--18--x-18-----18--x-18-----|
--17--x-17-----17--x-17-----|--18--x-18-----18--x-18-----|
----------------------------|----------------------------|
----------------------------|----------------------------|
----------------------------|----------------------------|
----------------------------|----------------------------|


                                                          
--18--x-18-----18--x-18-----|--18--x-18-----18--x-18-----|
--17--x-17-----17--x-17-----|--18--x-18-----18--x-18-----|
----------------------------|----------------------------|
----------------------------|----------------------------|
----------------------------|----------------------------|
----------------------------|----------------------------|


                                                             
--18--x-18-----x---------|--6-6-6-6-6-6-6-6-6-6-6-6-6-6-6-6-|
--17--x-17-----x----0----|--6-6-6-6-6-6-6-6-6-6-6-6-6-6-6-6-|
--------------------0----|--5-5-5-5-5-5-5-5-5-5-5-5-5-5-5-5-|
--------------------0----|----------------------------------|
-------------------------|----------------------------------|
-------------------------|----------------------------------|


                                                                      
--6-6-6-6-6-6-6-6-6-6-6-6-6-6-6-6-|--6-6-6-6-6-6-6-6-6-6-6-6-6-6-6-6-|
--5-5-5-5-5-5-5-5-5-5-5-5-5-5-5-5-|--6-6-6-6-6-6-6-6-6-6-6-6-6-6-6-6-|
--5-5-5-5-5-5-5-5-5-5-5-5-5-5-5-5-|--5-5-5-5-5-5-5-5-5-5-5-5-5-5-5-5-|
----------------------------------|----------------------------------|
----------------------------------|----------------------------------|
----------------------------------|----------------------------------|


                                                                      
--6-6-6-6-6-6-6-6-6-6-6-6-6-6-6-6-|--6-6-6-6-6-6-6-6-6-6-6-6-6-6-6-6-|
--5-5-5-5-5-5-5-5-5-5-5-5-5-5-5-5-|--6-6-6-6-6-6-6-6-6-6-6-6-6-6-6-6-|
--5-5-5-5-5-5-5-5-5-5-5-5-5-5-5-5-|--5-5-5-5-5-5-5-5-5-5-5-5-5-5-5-5-|
----------------------------------|----------------------------------|
----------------------------------|----------------------------------|
----------------------------------|----------------------------------|


                                                                      
--6-6-6-6-6-6-6-6-6-6-6-6-6-6-6-6-|--6-6-6-6-6-6-6-6-6-6-6-6-6-6-6-6-|
--5-5-5-5-5-5-5-5-5-5-5-5-5-5-5-5-|--6-6-6-6-6-6-6-6-6-6-6-6-6-6-6-6-|
--5-5-5-5-5-5-5-5-5-5-5-5-5-5-5-5-|--5-5-5-5-5-5-5-5-5-5-5-5-5-5-5-5-|
----------------------------------|----------------------------------|
----------------------------------|----------------------------------|
----------------------------------|----------------------------------|


                                                                      
--6-6-6-6-6-6-6-6-6-6-6-6-6-6-6-6-|--6-6-6-6-6-6-6-6-6-6-6-6-6-6-6-6-|
--5-5-5-5-5-5-5-5-5-5-5-5-5-5-5-5-|--6-6-6-6-6-6-6-6-6-6-6-6-6-6-6-6-|
--5-5-5-5-5-5-5-5-5-5-5-5-5-5-5-5-|--5-5-5-5-5-5-5-5-5-5-5-5-5-5-5-5-|
----------------------------------|----------------------------------|
----------------------------------|----------------------------------|
----------------------------------|----------------------------------|


                                                                      
--6-6-6-6-6-6-6-6-6-6-6-6-6-6-6-6-|--6-6-6-6-6-6-6-6-6-6-6-6-6-6-6-6-|
--5-5-5-5-5-5-5-5-5-5-5-5-5-5-5-5-|--6-6-6-6-6-6-6-6-6-6-6-6-6-6-6-6-|
--5-5-5-5-5-5-5-5-5-5-5-5-5-5-5-5-|--5-5-5-5-5-5-5-5-5-5-5-5-5-5-5-5-|
----------------------------------|----------------------------------|
----------------------------------|----------------------------------|
----------------------------------|----------------------------------|


                                                                
--6-6-6-6-6-6-6-6-6-6-6-6-6-6-6-6-|--18--x-18-----18--x-18-----|
--5-5-5-5-5-5-5-5-5-5-5-5-5-5-5-5-|--18--x-18-----18--x-18-----|
--5-5-5-5-5-5-5-5-5-5-5-5-5-5-5-5-|----------------------------|
----------------------------------|----------------------------|
----------------------------------|----------------------------|
----------------------------------|----------------------------|


                                                          
--18--x-18-----18--x-18-----|--18--x-18-----18--x-18-----|
--17--x-17-----17--x-17-----|--18--x-18-----18--x-18-----|
----------------------------|----------------------------|
----------------------------|----------------------------|
----------------------------|----------------------------|
----------------------------|----------------------------|


                                                          
--18--x-18-----18--x-18-----|--18--x-18-----18--x-18-----|
--17--x-17-----17--x-17-----|--18--x-18-----18--x-18-----|
----------------------------|----------------------------|
----------------------------|----------------------------|
----------------------------|----------------------------|
----------------------------|----------------------------|


                                                          
--18--x-18-----18--x-18-----|--18--x-18-----18--x-18-----|
--17--x-17-----17--x-17-----|--18--x-18-----18--x-18-----|
----------------------------|----------------------------|
----------------------------|----------------------------|
----------------------------|----------------------------|
----------------------------|----------------------------|


                                                          
--18--x-18-----18--x-18-----|--18--x-18-----18--x-18-----|
--17--x-17-----17--x-17-----|--18--x-18-----18--x-18-----|
----------------------------|----------------------------|
----------------------------|----------------------------|
----------------------------|----------------------------|
----------------------------|----------------------------|


                                                          
--18--x-18-----18--x-18-----|--18--x-18-----18--x-18-----|
--17--x-17-----17--x-17-----|--18--x-18-----18--x-18-----|
----------------------------|----------------------------|
----------------------------|----------------------------|
----------------------------|----------------------------|
----------------------------|----------------------------|


                                                          
--18--x-18-----18--x-18-----|--18--x-18-----18--x-18-----|
--17--x-17-----17--x-17-----|--18--x-18-----18--x-18-----|
----------------------------|----------------------------|
----------------------------|----------------------------|
----------------------------|----------------------------|
----------------------------|----------------------------|


                                                          
--18--x-18-----18--x-18-----|--18--x-18-----18--x-18-----|
--17--x-17-----17--x-17-----|--18--x-18-----18--x-18-----|
----------------------------|----------------------------|
----------------------------|----------------------------|
----------------------------|----------------------------|
----------------------------|----------------------------|


                                                             
--18--x-18-----18--------|--6-6-6-6-6-6-6-6-6-6-6-6-6-6-6-6-|
--17--x-17-----17--------|--6-6-6-6-6-6-6-6-6-6-6-6-6-6-6-6-|
-------------------------|--5-5-5-5-5-5-5-5-5-5-5-5-5-5-5-5-|
-------------------------|----------------------------------|
-------------------------|----------------------------------|
-------------------------|----------------------------------|


                                                                      
--6-6-6-6-6-6-6-6-6-6-6-6-6-6-6-6-|--6-6-6-6-6-6-6-6-6-6-6-6-6-6-6-6-|
--5-5-5-5-5-5-5-5-5-5-5-5-5-5-5-5-|--6-6-6-6-6-6-6-6-6-6-6-6-6-6-6-6-|
--5-5-5-5-5-5-5-5-5-5-5-5-5-5-5-5-|--5-5-5-5-5-5-5-5-5-5-5-5-5-5-5-5-|
----------------------------------|----------------------------------|
----------------------------------|----------------------------------|
----------------------------------|----------------------------------|


                                                                      
--6-6-6-6-6-6-6-6-6-6-6-6-6-6-6-6-|--6-6-6-6-6-6-6-6-6-6-6-6-6-6-6-6-|
--5-5-5-5-5-5-5-5-5-5-5-5-5-5-5-5-|--6-6-6-6-6-6-6-6-6-6-6-6-6-6-6-6-|
--5-5-5-5-5-5-5-5-5-5-5-5-5-5-5-5-|--5-5-5-5-5-5-5-5-5-5-5-5-5-5-5-5-|
----------------------------------|----------------------------------|
----------------------------------|----------------------------------|
----------------------------------|----------------------------------|


                                                                      
--6-6-6-6-6-6-6-6-6-6-6-6-6-6-6-6-|--6-6-6-6-6-6-6-6-6-6-6-6-6-6-6-6-|
--5-5-5-5-5-5-5-5-5-5-5-5-5-5-5-5-|--6-6-6-6-6-6-6-6-6-6-6-6-6-6-6-6-|
--5-5-5-5-5-5-5-5-5-5-5-5-5-5-5-5-|--5-5-5-5-5-5-5-5-5-5-5-5-5-5-5-5-|
----------------------------------|----------------------------------|
----------------------------------|----------------------------------|
----------------------------------|----------------------------------|


                                                                    
--6-6-6-6-6-6-6-6-6-6-6-6-6--x--|----------------------------------|
--5-5-5-5-5-5-5-5-5-5-5-5-5--x--|--6-6-6-6-6-6-6-6-6-3-3-3-3-3-3-3-|
--5-5-5-5-5-5-5-5-5-5-5-5-5--x--|--3-3-3-3-3-3-3-3-3-3-5-5-5-5-5-5-|
--------------------------------|--3-3-3-3-3-3-3-3-3-3-3-3-3-3-3-3-|
--------------------------------|----------------------------------|
--------------------------------|----------------------------------|


                                                                      
----------------------------------|----------------------------------|
--3-3-3-3-3-3-3-3-3---3-3-3-3-3-3-|--6-6-6-6-6-6-6-6-6-3-3-3-3-3-3-3-|
--5-3-3-3-3-3-3-3-3---3-3-3-3-3-3-|--3-3-3-3-3-3-3-3-3-3-5-5-5-5-5-5-|
--3-3-3-3-3-3-3-3-3h5-5-5-5-5-5-5-|--3-3-3-3-3-3-3-3-3-3-3-3-3-3-3-3-|
----------------------------------|----------------------------------|
----------------------------------|----------------------------------|


                                                                      
----------------------------------|----------------------------------|
--3-3-3-3-3-3-3-3-3---3-3-3-3-3-3-|--6-6-6-6-6-6-6-6-6-3-3-3-3-3-3-3-|
--5-3-3-3-3-3-3-3-3---3-3-3-3-3-3-|--3-3-3-3-3-3-3-3-3-3-5-5-5-5-5-5-|
--3-3-3-3-3-3-3-3-3h5-5-5-5-5-5-5-|--3-3-3-3-3-3-3-3-3-3-3-3-3-3-3-3-|
----------------------------------|----------------------------------|
----------------------------------|----------------------------------|


                                                                      
----------------------------------|----------------------------------|
--3-3-3-3-3-3-3-3-3---3-3-3-3-3-3-|--6-6-6-6-6-6-6-6-6-3-3-3-3-3-3-3-|
--5-3-3-3-3-3-3-3-3---3-3-3-3-3-3-|--3-3-3-3-3-3-3-3-3-3-5-5-5-5-5-5-|
--3-3-3-3-3-3-3-3-3h5-5-5-5-5-5-5-|--3-3-3-3-3-3-3-3-3-3-3-3-3-3-3-3-|
----------------------------------|----------------------------------|
----------------------------------|----------------------------------|


                                                                      
----------------------------------|----------------------------------|
--3-3-3-3-3-3-3-3-3---3-3-3-3-3-3-|--6-6-6-6-6-6-6-6-6-3-3-3-3-3-3-3-|
--5-3-3-3-3-3-3-3-3---3-3-3-3-3-3-|--3-3-3-3-3-3-3-3-3-3-5-5-5-5-5-5-|
--3-3-3-3-3-3-3-3-3h5-5-5-5-5-5-5-|--3-3-3-3-3-3-3-3-3-3-3-3-3-3-3-3-|
----------------------------------|----------------------------------|
----------------------------------|----------------------------------|


                                                                      
----------------------------------|----------------------------------|
--3-3-3-3-3-3-3-3-3---3-3-3-3-3-3-|--6-6-6-6-6-6-6-6-6-3-3-3-3-3-3-3-|
--5-3-3-3-3-3-3-3-3---3-3-3-3-3-3-|--3-3-3-3-3-3-3-3-3-3-5-5-5-5-5-5-|
--3-3-3-3-3-3-3-3-3h5-5-5-5-5-5-5-|--3-3-3-3-3-3-3-3-3-3-3-3-3-3-3-3-|
----------------------------------|----------------------------------|
----------------------------------|----------------------------------|


                                                         
----3----3----3------|--6-6-6-6-6-6-6-6-6-6-6-6-6-6-6-6-|
----3----3----3------|--6-6-6-6-6-6-6-6-6-6-6-6-6-6-6-6-|
----3----3----3------|--5-5-5-5-5-5-5-5-5-5-5-5-5-5-5-5-|
----5----5----5------|----------------------------------|
---------------------|----------------------------------|
---------------------|----------------------------------|


                                                                      
--6-6-6-6-6-6-6-6-6-6-6-6-6-6-6-6-|--6-6-6-6-6-6-6-6-6-6-6-6-6-6-6-6-|
--5-5-5-5-5-5-5-5-5-5-5-5-5-5-5-5-|--6-6-6-6-6-6-6-6-6-6-6-6-6-6-6-6-|
--5-5-5-5-5-5-5-5-5-5-5-5-5-5-5-5-|--5-5-5-5-5-5-5-5-5-5-5-5-5-5-5-5-|
----------------------------------|----------------------------------|
----------------------------------|----------------------------------|
----------------------------------|----------------------------------|


                                                                      
--6-6-6-6-6-6-6-6-6-6-6-6-6-6-6-6-|--6-6-6-6-6-6-6-6-6-6-6-6-6-6-6-6-|
--5-5-5-5-5-5-5-5-5-5-5-5-5-5-5-5-|--6-6-6-6-6-6-6-6-6-6-6-6-6-6-6-6-|
--5-5-5-5-5-5-5-5-5-5-5-5-5-5-5-5-|--5-5-5-5-5-5-5-5-5-5-5-5-5-5-5-5-|
----------------------------------|----------------------------------|
----------------------------------|----------------------------------|
----------------------------------|----------------------------------|


                                                                      
--6-6-6-6-6-6-6-6-6-6-6-6-6-6-6-6-|--6-6-6-6-6-6-6-6-6-6-6-6-6-6-6-6-|
--5-5-5-5-5-5-5-5-5-5-5-5-5-5-5-5-|--6-6-6-6-6-6-6-6-6-6-6-6-6-6-6-6-|
--5-5-5-5-5-5-5-5-5-5-5-5-5-5-5-5-|--5-5-5-5-5-5-5-5-5-5-5-5-5-5-5-5-|
----------------------------------|----------------------------------|
----------------------------------|----------------------------------|
----------------------------------|----------------------------------|


                                                                          
--6-6-6-6-6-6-6-6-6-6-6-6-6-6-6-6-|--6/---------------|------------------|
--5-5-5-5-5-5-5-5-5-5-5-5-5-5-5-5-|--6/---------------|------------------|
--5-5-5-5-5-5-5-5-5-5-5-5-5-5-5-5-|-------------------|------------------|
----------------------------------|-------------------|------------------|
----------------------------------|-------------------|------------------|
----------------------------------|-------------------|------------------|


                                                                            
------------------|------------------|------------------|------------------|
------------------|------------------|------------------|------------------|
------------------|------------------|------------------|------------------|
------------------|------------------|------------------|------------------|
------------------|------------------|------------------|------------------|
------------------|------------------|------------------|------------------|


                                                                 
------------------|------------------|--------------------------|
------------------|------------------|--------------------------|
------------------|------------------|--3--3--3--3--3--3--3--3--|
------------------|------------------|--3--3--3--3--3--3--3--3--|
------------------|------------------|--------------------------|
------------------|------------------|--3--3--3--3--3--3--3--3--|


                                                              
----------------------------------|--------------------------|
-------3-------3-------3-------3--|--------------------------|
--x--x-3--x--x-3--x--x-3--x--x-3--|--3--3--3--3--3--3--3--3--|
--x--x-2--x--x-2--x--x-2--x--x-2--|--3--3--3--3--3--3--3--3--|
--x--x-3--x--x-3--x--x-3--x--x-3--|--------------------------|
--x--x----x--x----x--x----x--x----|--3--3--3--3--3--3--3--3--|


                                                              
----------------------------------|--------------------------|
-------3-------3-------3-------3--|--------------------------|
--x--x-3--x--x-3--x--x-3--x--x-3--|--3--3--3--3--3--3--3--3--|
--x--x-2--x--x-2--x--x-2--x--x-2--|--3--3--3--3--3--3--3--3--|
--x--x-3--x--x-3--x--x-3--x--x-3--|--------------------------|
--x--x----x--x----x--x----x--x----|--3--3--3--3--3--3--3--3--|


                                                              
----------------------------------|--------------------------|
-------3-------3-------3-------3--|--------------------------|
--x--x-3--x--x-3--x--x-3--x--x-3--|--3--3--3--3--3--3--3--3--|
--x--x-2--x--x-2--x--x-2--x--x-2--|--3--3--3--3--3--3--3--3--|
--x--x-3--x--x-3--x--x-3--x--x-3--|--------------------------|
--x--x----x--x----x--x----x--x----|--3--3--3--3--3--3--3--3--|


                                                              
----------------------------------|--------------------------|
-------3-------3-------3-------3--|--------------------------|
--x--x-3--x--x-3--x--x-3--x--x-3--|--3--3--3--3--3--3--3--3--|
--x--x-2--x--x-2--x--x-2--x--x-2--|--3--3--3--3--3--3--3--3--|
--x--x-3--x--x-3--x--x-3--x--x-3--|--------------------------|
--x--x----x--x----x--x----x--x----|--3--3--3--3--3--3--3--3--|


                                                              
----------------------------------|--------------------------|
-------3-------3-------3-------3--|--------------------------|
--x--x-3--x--x-3--x--x-3--x--x-3--|--3--3--3--3--3--3--3--3--|
--x--x-2--x--x-2--x--x-2--x--x-2--|--3--3--3--3--3--3--3--3--|
--x--x-3--x--x-3--x--x-3--x--x-3--|--------------------------|
--x--x----x--x----x--x----x--x----|--3--3--3--3--3--3--3--3--|


                                                              
----------------------------------|--------------------------|
-------3-------3-------3-------3--|--------------------------|
--x--x-3--x--x-3--x--x-3--x--x-3--|--3--3--3--3--3--3--3--3--|
--x--x-2--x--x-2--x--x-2--x--x-2--|--3--3--3--3--3--3--3--3--|
--x--x-3--x--x-3--x--x-3--x--x-3--|--------------------------|
--x--x----x--x----x--x----x--x----|--3--3--3--3--3--3--3--3--|


                                                              
----------------------------------|--------------------------|
-------3-------3-------3-------3--|--------------------------|
--x--x-3--x--x-3--x--x-3--x--x-3--|--3--3--3--3--3--3--3--3--|
--x--x-2--x--x-2--x--x-2--x--x-2--|--3--3--3--3--3--3--3--3--|
--x--x-3--x--x-3--x--x-3--x--x-3--|--------------------------|
--x--x----x--x----x--x----x--x----|--3--3--3--3--3--3--3--3--|


                                                          
----------------------------------|----------------------|
-------3-------3-------3-------3--|----------------------|
--x--x-3--x--x-3--x--x-3--x--x-3--|-------3/-------10----|
--x--x-2--x--x-2--x--x-2--x--x-2--|-------2/-------9-----|
--x--x-3--x--x-3--x--x-3--x--x-3--|-------3/-------10----|
--x--x----x--x----x--x----x--x----|--3~------------------|


                                                                                
--------------------------------------------------------------------------------
--------------------------------------------------------------------------------
--10h12--10--10-10-10-10-10-10-10-10-10-10-10-10-10-10-10-10-10-10-10-10-10-10-1
-------------9--9--9--9--9--9--9--9--9--9--9--9--9--9--9--9--9--9--9--9--9--9--9
-------------10-10-10-10-10-10-10-10-10-10-10-10-10-10-10-10-10-10-10-10-10-10-1
--------------------------------------------------------------------------------


                                                                                
--------------------------------------------------------------------------------
--------------------------------------------------------------------------------
--10-10-10-10-10-10-10-10-10-10-10-10-10-10-10-10-10-10-10-10-10-10-10-10-10-10-
--9--9--9--9--9--9--9--9--9--9--9--9--9--9--9--9--9--9--9--9--9--9--9--9--9--9--
--10-10-10-10-10-10-10-10-10-10-10-10-10-10-10-10-10-10-10-10-10-10-10-10-10-10-
--------------------------------------------------------------------------------


             
-----------||
-----------||
-----------||
--8\-------||
-----------||
-----------||




Guitar 2




                                                                 
E||----|------------------|------------------|------------------|
B||----|------------------|------------------|------------------|
G||----|------------------|------------------|------------------|
D||----|------------------|------------------|------------------|
A||----|------------------|------------------|------------------|
E||----|------------------|------------------|------------------|


                                                                              
------------------|------------------|------------------|--------------------|
------------------|------------------|------------------|--------------------|
------------------|------------------|------------------|--3----3\-----------|
------------------|------------------|------------------|--3----3\-----------|
------------------|------------------|------------------|--------------------|
------------------|------------------|------------------|--------------------|


                                                                             
-------------------|------------------|------------------|------------------|
-------------------|------------------|------------------|------------------|
-------------------|------------------|------------------|------------------|
-------------------|------------------|------------------|------------------|
--------------1----|------------------|------------------|------------------|
--------------0----|------------------|------------------|------------------|


                                                                            
------------------|------------------|------------------|------------------|
------------------|------------------|------------------|------------------|
------------------|------------------|------------------|------------------|
------------------|------------------|------------------|------------------|
------------------|------------------|------------------|------------------|
------------------|------------------|------------------|------------------|


                                                        
--------------------|----------------------------------|
--------------------|----------------------------------|
----------------x-x-|--3-3-3-3-3-3-3-3-3-3-----3-3-3---|
--------------------|----------------------3h5-------5-|
--------------------|----------------------------------|
--------------------|----------------------------------|


                                                                  
---------------------------------|-------------------------------|
---------------------------------|-------------------------------|
--3-3-3-3-3-x-x-3--3-----3-3-3---|--3-3-3-3-3-x-x-3--3-----------|
---------------------3h5-------5-|---------------------3h5~--x-x-|
---------------------------------|-------------------------------|
---------------------------------|-------------------------------|


                                                                         
-----------------------x----------|------------------|------------------|
--------------------6----6--x-6h8-|------------------|------------------|
--3-3-3-3-x-x-3-5/7---------------|------------------|------------------|
----------------------------------|------------------|------------------|
----------------------------------|------------------|------------------|
----------------------------------|------------------|------------------|


                                                                            
------------------|------------------|------------------|------------------|
------------------|------------------|------------------|------------------|
------------------|------------------|------------------|------------------|
------------------|------------------|------------------|------------------|
------------------|------------------|------------------|------------------|
------------------|------------------|------------------|------------------|


                                                                            
------------------|------------------|------------------|------------------|
------------------|------------------|------------------|------------------|
------------------|------------------|------------------|------------------|
------------------|------------------|------------------|------------------|
------------------|------------------|------------------|------------------|
------------------|------------------|------------------|------------------|


                                                                            
------------------|------------------|------------------|------------------|
------------------|------------------|------------------|------------------|
------------------|------------------|------------------|------------------|
------------------|------------------|------------------|------------------|
------------------|------------------|------------------|------------------|
------------------|------------------|------------------|------------------|


                                                                            
------------------|------------------|------------------|------------------|
------------------|------------------|------------------|------------------|
------------------|------------------|------------------|------------------|
------------------|------------------|------------------|------------------|
------------------|------------------|------------------|------------------|
------------------|------------------|------------------|------------------|


                                                                            
------------------|------------------|------------------|------------------|
------------------|------------------|------------------|------------------|
------------------|------------------|------------------|------------------|
------------------|------------------|------------------|------------------|
------------------|------------------|------------------|------------------|
------------------|------------------|------------------|------------------|


                                                                       
------------------|------------------|--------------------------------|
------------------|------------------|--------------------------------|
------------------|------------------|--3/5-5--5/7-7--7/10-10--10\9---|
------------------|------------------|--------------------------------|
------------------|------------------|--------------------------------|
------------------|------------------|--------------------------------|


                                                               
-----------------------------|--------------------------------|
-----------------------------|--------------------------------|
--9/12-12\--9-----9/10\-7----|--7-10-9---7\5---5/7\---3-3-3-3-|
-----------------------------|--------------------------------|
-----------------------------|--------------------------------|
-----------------------------|--------------------------------|


                                                                           
-----------------------------------|-------------------|------------------|
-----------------------------------|-------------------|------------------|
--3h5-3--5--3--5---3-5-5p3-5-3-----|-------------------|------------------|
-------------------------------5-3-|--5~---------------|------------------|
-----------------------------------|-------------------|------------------|
-----------------------------------|-------------------|------------------|


                                                               
------------------|------------------------|------------------|
------------------|----3-------------------|------------------|
------------------|--------5---3--5-3---5--|------------------|
------------------|------------------------|------------------|
------------------|------------------------|------------------|
------------------|------------------------|------------------|


                                                                 
------------------|---------------------|-----------------------|
------------------|--------------3------|--------3--------------|
------------------|----5----5-----------|-------------5-3---x-3-|
------------------|---------------------|-----------------------|
------------------|---------------------|-----------------------|
------------------|---------------------|-----------------------|


                                                                             
-----------------------|------------------------|---------------------------|
--------------------3--|------------------------|---------------------------|
------------3----5-----|--5--3-------------3----|----7----5h7--5h7----7--5--|
--------3h5------------|----------5----3h5------|---------------------------|
-----------------------|------------------------|---------------------------|
-----------------------|------------------------|---------------------------|


                                                                     
---------------------|-------------------|--------------------------|
---------------------|-------------------|--------------------------|
----3----------------|-------------------|--------------3-----------|
---------5----3------|-------------------|--3--x-3---------5--3--5--|
---------------------|----------------5--|-----------5--------------|
---------------------|-------------------|--------------------------|


                                                               
------------------|------------------------|------------------|
------------------|------------------------|------------------|
------------------|----5---3---3-----------|------------------|
------------------|---------------5-4-3----|------------------|
------------------|------------------------|------------------|
------------------|------------------------|------------------|


                                                                            
------------------|------------------|------------------|------------------|
------------------|------------------|------------------|------------------|
------------------|------------------|------------------|------------------|
------------------|------------------|------------------|------------------|
------------------|------------------|------------------|------------------|
------------------|------------------|------------------|------------------|


                                                                            
------------------|------------------|------------------|------------------|
------------------|------------------|------------------|------------------|
------------------|------------------|------------------|------------------|
------------------|------------------|------------------|------------------|
------------------|------------------|------------------|------------------|
------------------|------------------|------------------|------------------|


                                                                              
------------------|------------------|------------------|--------------------|
------------------|------------------|------------------|--6----------3------|
------------------|------------------|------------------|--3----------5------|
------------------|------------------|------------------|--3----------3------|
------------------|------------------|------------------|--------------------|
------------------|------------------|------------------|--------------------|


                                                             
----3--------------|--------------------|----3--------------|
----3--------------|--6----------3------|----3--------------|
----3--------------|--3----------5------|----3--------------|
----5--------------|--3----------3------|----5--------------|
-------------------|--------------------|-------------------|
-------------------|--------------------|-------------------|


                                                              
--------------------|----3--------------|--------------------|
--6----------3------|----3--------------|--6----------3------|
--3----------5------|----3--------------|--3----------5------|
--3----------3------|----5--------------|--3----------3------|
--------------------|-------------------|--------------------|
--------------------|-------------------|--------------------|


                                                                               
----3----3----3------|------------------|------------------|------------------|
----3----3----3------|------------------|------------------|------------------|
----3----3----3------|------------------|------------------|------------------|
----5----5----5------|------------------|------------------|------------------|
---------------------|------------------|------------------|------------------|
---------------------|------------------|------------------|------------------|


                                                                            
------------------|------------------|------------------|------------------|
------------------|------------------|------------------|------------------|
------------------|------------------|------------------|------------------|
------------------|------------------|------------------|------------------|
------------------|------------------|------------------|------------------|
------------------|------------------|------------------|------------------|


                                                                            
------------------|------------------|------------------|------------------|
------------------|------------------|------------------|------------------|
------------------|------------------|------------------|------------------|
------------------|------------------|------------------|------------------|
------------------|------------------|------------------|------------------|
------------------|------------------|------------------|------------------|


                                                                            
------------------|------------------|------------------|------------------|
------------------|------------------|------------------|------------------|
------------------|------------------|------------------|------------------|
------------------|------------------|------------------|------------------|
------------------|------------------|------------------|------------------|
------------------|------------------|------------------|------------------|


                                                      
-------------------------|---------------------------|
-------------------------|--18b-20~-----------18p-15-|
---------------x--x-x--x-|---------------------------|
---------------x--x-x--x-|---------------------------|
------------x------------|---------------------------|
------------x------------|---------------------------|


                                                                              
--17b-----17--15-----15--------------|---------------------------------------|
-----------------18-----18b----------|---------------------------------------|
------------------------------17--17-|--15~----------------------------------|
-------------------------------------|----------17--15-17--15--17------------|
-------------------------------------|----------------------------15--15--15-|
-------------------------------------|---------------------------------------|


                                                                 
---------------------------|------------------------------------|
---------------------------|------------------------------------|
---------------------------|------------------------------------|
---------------------------|------------------------------------|
--15r---15b----------17-17-|--17~-17~-17~-17~-17~---17~--15p-13-|
---------------------------|------------------------------------|


                                                                    
---------------------------|---------------------------------------|
---------------------------|---------------------------------------|
---------------------------|---------------------------------------|
---------------------------|---------------------------------------|
--15b---16b------15b-15----|------------15-13b----------13h-15-13b-|
---------------------------|--15~---13-----------13h-15------------|


                                                                    
--------------------------------------|----------------------------|
--------------------------------------|----------------------------|
--------------------------------------|----------------------------|
--------------------------------------|-----------------------3h-5-|
-------------13~-------13h-15-13~-----|------------3--1--1-3-------|
--15--13h-15-------15-------------15\-|--1b---3~-------------------|


                                                                                
---------------------------|--------------------------|---------------------6--|
---------------------------|-----------------------6--|--8r------6--8~---------|
-------3~------3-5b---8b---|--------3h-5-3~---5/7-----|------------------------|
--3h-5------5--------------|--------------------------|------------------------|
---------------------------|--------------------------|------------------------|
---------------------------|--------------------------|------------------------|


                                 
--8r-------6-8--8r--6-8--8r-8p6-|
--------------------------------|
--------------------------------|
--------------------------------|
--------------------------------|
--------------------------------|


                                                   
--8p6---6-----------------------------------------|
------8---8p6-8p6---6-----------------------------|
------------------7---7\5p3-5p3---3-3---3--5------|
--------------------------------5-----5------5--3-|
--------------------------------------------------|
--------------------------------------------------|


                                                               
-----------------3--x--------------|--------------------------|
------------5--3-3--x-5--x--x-x--x-|--5----5b----5------------|
-------3----5--3------5--x--x-x--x-|--5----5b----5----5b-5p-3-|
--5--5-----------------------------|--------------------------|
-----------------------------------|--------------------------|
-----------------------------------|--------------------------|


                         
------------------------|
------------------------|
--4~--------------------|
-----------5-3-5-3-5~---|
------------------------|
------------------------|


                                                           
----------------------------------------------------------|
----------------------------------------------------------|
----------10-10-10-10-10-10-10-10-10-10-10-10-10-10-10-10-|
----------9--9--9--9--9--9--9--9--9--9--9--9--9--9--9--9--|
----------10-10-10-10-10-10-10-10-10-10-10-10-10-10-10-10-|
----------------------------------------------------------|


                                                                                
--------------------------------------------------------------------------------
--------------------------------------------------------------------------------
--10-10-10-10-10-10-10-10-10-10-10-10-10-10-10-10-10-10-10-10-10-10-10-10-10-10-
--9--9--9--9--9--9--9--9--9--9--9--9--9--9--9--9--9--9--9--9--9--9--9--9--9--9--
--10-10-10-10-10-10-10-10-10-10-10-10-10-10-10-10-10-10-10-10-10-10-10-10-10-10-
--------------------------------------------------------------------------------


            
----------||
----------||
----------||
----------||
----------||
----------||
Guitar Tabs FROM THE TOP 60 ARTISTS
1.  AC/DC Guitar Tabs
2.  AEROSMITH Guitar Tabs
3.  ALANIS MORISSETTE Guitar Tabs
4.  BEATLES Guitar Tabs
5.  BLINK 182 Guitar Tabs
6.  BOB DYLAN Guitar Tabs
7.  BOB MARLEY Guitar Tabs
8.  BUSH Guitar Tabs
9.  COLDPLAY Guitar Tabs
10.  DAVE MATTHEWS Guitar Tabs
11.  ERIC CLAPTON Guitar Tabs
12.  GRATEFUL Dead Guitar Tabs
13.  GREEN DAY Guitar Tabs
14.  IRON MAIDEN Guitar Tabs
15.  JACK JOHNSON Guitar Tabs
16.  JIMI HENDRIX Guitar Tabs
17.  JOHN MAYER Guitar Tabs
18.  JOHNNY CASH Guitar Tabs
19.  LED ZEPPELIN Guitar Tabs
20.  LIMP BIZKIT Guitar Tabs
21.  METALLICA Guitar Tabs
22.  NEIL YOUNG Guitar Tabs
23.  NIRVANA Guitar Tabs
24.  PEARL JAM Guitar Tabs
25.  PINK FLOYD Guitar Tabs
26.  RADIOHEAD Guitar Tabs
27  RED HOT CHILI PEPPERS Guitar Tabs
28  ROLLING STONES Guitar Tabs
29  STONE TEMPLE PILOTS Guitar Tabs
30  U2 Guitar Tabs
31.  VAN HALEN Guitar Tabs
32.  WEEZER Guitar Tabs