Guitar Resources


By The Way (By RED HOT CHILI PEPPERS)
 
                         BY THE WAY - RED HOT CHILI PEPPERS
                      from their NEW album "By The Way" (2002)



TAB by Ansgar Wolsing (www.schrammel-dich-fit.de)




CHORUS 1:

(Intro - instrumental)
  F                 C                 am
  1 + 2 + 3 + 4 +   1 + 2 + 3 + 4 +   1 + 2 + 3 + 4 +   1 + 2 + 3 + 4 + 
|-----------------|-----------------|-----------------|-----------------|
|-----------------|-----------------|-----------------|-----------------|
|-----------------|-----------------|-----------------|-----------------|
|10-#-#-#-#-#-#-#-|10-#-#-#-#-#-#-#-|-7-7-7-7-7-7-7-7-|-7-7-7-7-7-7-7-7-|
|-8-8-8-8-8-8-8-8-|-7-7-7-7-7-7-7-7-|-7-7-7-7-7-7-7-7-|-7-7-7-7-7-7-7-7-|
|-----------------|-----------------|-----------------|-----------------|

(start with lyrics)
  F                 C                 am                       (am) G
  1 + 2 + 3 + 4 +   1 + 2 + 3 + 4 +   1 + 2 + 3 + 4 +   1 + 2 + 3 + 4 + 
|-----------------|-----------------|-----------------|-----------------|
|-----------------|-----------------|-----------------|-----------------|
|-----------------|-9-9-9-9-9-9-9-9-|-----------------|---------9-9-7-7-|
|10-#-#-#-#-#-#-#-|10-#-#-#-#-#-#-#-|-7-7-7-7-7-7-7-7-|-7-7-7-7-7-7-5-5-|
|-8-8-8-8-8-8-8-8-|-----------------|-7-7-7-7-7-7-7-7-|-7-7-7-7---------|
|-----------------|-----------------|-----------------|-----------------|

  F                 C                 am
  1 + 2 + 3 + 4 +   1 + 2 + 3 + 4 +   1 + 2 + 3 + 4 +   1 + 2 + 3 + 4 + 
|-----------------|-----------------|-----------------|-----------------|
|-----------------|-----------------|-----------------|-----------------|
|-----------------|-----------------|-----------------|-----------------|
|10-#-#-#-#-#-#-#-|10-#-#-#-#-#-#-#-|-7-7-7-7-7-7-7-7-|-7-7-7-7-7-7-7-7-|
|-8-8-8-8-8-8-8-8-|-7-7-7-7-7-7-7-7-|-7-7-7-7-7-7-7-7-|-7-7-7-7-7-7-7-7-|
|-----------------|-----------------|-----------------|-----------------|

  F                 C                 am
  1 + 2 + 3 + 4 +   1 + 2 + 3 + 4 +   1 + 2 + 3 + 4 +   1 + 2 + 3 + 4 + 
|-----------------|-----------------|-----------------|-----------------|
|-----------------|-----------------|-----------------|-----------------|
|-----------------|-9-9-9-9-9-9-9-9-|-9-9-9-9-9-9-9-9-|-9-9-9-9-9-9-9-9-|
|10-#-#-#-#-#-#-#-|10-#-#-#-#-#-#-#-|-7-7-7-7-7-7-7-7-|-7-7-7-7-7-7-7-7-|
|-8-8-8-8-8-8-8-8-|-----------------|-----------------|-----------------|
|-----------------|-----------------|-----------------|-----------------|



VERSE 1:

(intrumental)
  1 + 2 + 3 + 4 +   1 + 2 + 3 + 4 +   1 + 2 + 3 + 4 +   1 + 2 + 3 + 4 + 
|-----------------|-----------------|-----------------|-----------------|
|-x-x-x-x-x-x-x-x-|-x-x-x-x-x-x-x-x-|-x-x-x-x-x-x-x-x-|-x-x-x-x-x-x-x-x-|
|-x-x-x-x-x-x-x-x-|-x-x-x-x-x-x-x-x-|-x-x-x-x-x-x-x-x-|-x-x-x-x-x-x-x-x-|
|-x-x-x-x-x-x-x-x-|-x-x-x-x-x-x-x-x-|-x-x-x-x-x-x-x-x-|-x-x-x-x-x-x-x-x-|
|-x-x-x-x-x-x-x-x-|-x-x-x-x-x-x-x-x-|-x-x-x-x-x-x-x-x-|-x-x-x-x-x-x-x-x-|
|-----------------|-----------------|-----------------|-----------------|

(start with lyrics)
  1 + 2 + 3 + 4 +   1 + 2 + 3 + 4 +   1 + 2 + 3 + 4 +   1 + 2 + e 3 e + e 4 e + e 
|-----------------|-----------------|-----------------|--------10---#-----#-#----|
|-x-x-x-x-x-x-x-x-|-x-x-x-x-x-x-x-x-|-x-x-x-x-x-x-x-x-|-x-x-x--10---#-----#-#----|
|-x-x-x-x-x-x-x-x-|-x-x-x-x-x-x-x-x-|-x-x-x-x-x-x-x-x-|-x-x-x--10---#-----#-#----|
|-x-x-x-x-x-x-x-x-|-x-x-x-x-x-x-x-x-|-x-x-x-x-x-x-x-x-|-x-x-x-x------------------|
|-x-x-x-x-x-x-x-x-|-x-x-x-x-x-x-x-x-|-x-x-x-x-x-x-x-x-|-x-x-x-x------------------|
|-----------------|-----------------|-----------------|--------------------------|

 dm
  1 + 2 + 3 + 4 +   1 + 2 + 3 + 4 +   1 + 2 + 3 + 4 +   1 + 2 + 3 + 4 + 
|10-#-------------|10-#-------------|10-#-------------|10-#-------------|
|10-#-x-x-x-x-x-x-|10-#-x-x-x-x-x-x-|10-#-x-x-x-x-x-x-|10-#-x-x-x-x-x-x-|
|12-#-x-x-x-x-x-x-|12-#-x-x-x-x-x-x-|12-#-x-x-x-x-x-x-|12-#-x-x-x-x-x-x-|
|12-#-x-x-x-x-x-x-|12-#-x-x-x-x-x-x-|12-#-x-x-x-x-x-x-|12-#-x-x-x-x-x-x-|
|10-#-x-x-x-x-x-x-|10-#-x-x-x-x-x-x-|10-#-x-x-x-x-x-x-|10-#-x-x-x-x-x-x-|
|-----------------|-----------------|-----------------|-----------------|

 dm
  1 + 2 + 3 + 4 +   1 + 2 + 3 + 4 +   1 + 2 + 3 + 4 +   1 + 2 + 3 + 4 + 
|10-#-------------|10-#-------------|10-#-------------|10-#-#-#-#-#-#-#-|
|10-#-x-x-x-x-x-x-|10-#-x-x-x-x-x-x-|10-#-x-x-x-x-x-x-|10-#-#-#-#-#-#-#-|
|12-#-x-x-x-x-x-x-|12-#-x-x-x-x-x-x-|12-#-x-x-x-x-x-x-|12-#-#-#-#-#-#-#-|
|12-#-x-x-x-x-x-x-|12-#-x-x-x-x-x-x-|12-#-x-x-x-x-x-x-|12-#-#-#-#-#-#-#-|
|10-#-x-x-x-x-x-x-|10-#-x-x-x-x-x-x-|10-#-x-x-x-x-x-x-|10-#-#-#-#-#-#-#-|
|-----------------|-----------------|-----------------|-----------------|



CHORUS 2:
  F                 C                 am
  1 + 2 + 3 + 4 +   1 + 2 + 3 + 4 +   1 + 2 + 3 + 4 +   1 + 2 + 3 + 4 + 
|-----------------|-----------------|-----------------|-----------------|
|-----------------|-----------------|-----------------|-----------------|
|10-#-#-#-#-#-#-#-|-----------------|-----------------|-----------------|
|10-#-#-#-#-#-#-#-|10-#-#-#-#-#-#-#-|-7-7-7-7-7-7-7-7-|-7-7-7-7-7-7-7-7-|
|-8-8-8-8-8-8-8-8-|10-#-#-#-#-#-#-#-|-7-7-7-7-7-7-7-7-|-7-7-7-7-7-7-7-7-|
|-----------------|-8-8-8-8-8-8-8-8-|-5-5-5-5-5-5-5-5-|-5-5-5-5-5-5-5-5-|

  F                 C                 am                am7
  1 + 2 + 3 + 4 +   1 + 2 + 3 + 4 +   1 + 2 + 3 + 4 +   1 + 2 + 3 + 4 + 
|-----------------|-----------------|-----------------|-----------------|
|-----------------|-----------------|-----------------|-----------------|
|10-#-#-#-#-#-#-#-|-----------------|-----------------|-----------------|
|10-#-#-#-#-#-#-#-|10-#-#-#-#-#-#-#-|-7-7-7-7-7-7-7-7-|-5-5-5-5-5-5-5-5-|
|-8-8-8-8-8-8-8-8-|10-#-#-#-#-#-#-#-|-7-7-7-7-7-7-7-7-|-7-7-7-7-7-7-7-7-|
|-----------------|-8-8-8-8-8-8-8-8-|-5-5-5-5-5-5-5-5-|-5-5-5-5-5-5-5-5-|


INTERLUDE:
 (w/wah)
  1 + 2 + 3 + 4 +   1 + 2 + 3 + 4 +   1 + 2 + 3 + 4 +   1 + 2 + 3 + 4 + 
|-----------------|-----------------|-----------------|-----------------|
|-----------------|-----------------|-----------------|-----------------|
|-7--(7)--7--(7)--|-7--(7)--7--(7)--|-7--(7)--7--(7)--|-7--(7)--7--(7)--|
|-----------------|-----------------|-----------------|-----------------|
|-----------------|-----------------|-----------------|-----------------|
|-----------------|-----------------|-----------------|-----------------|


VERSE 2 (like VERSE 1)

CHORUS 1

VERSE 3:

(instrumental)
 dm
  1 + 2 + 3 + 4 +   1 + 2 + 3 + 4 +   1 + 2 + 3 + 4 +   1 + 2 + 3 + 4 + 
|10-#-------------|10-#-------------|10-#-------------|10-#-------------|
|10-#-x-x-x-x-x-x-|10-#-x-x-x-x-x-x-|10-#-x-x-x-x-x-x-|10-#-x-x-x-x-x-x-|
|12-#-x-x-x-x-x-x-|12-#-x-x-x-x-x-x-|12-#-x-x-x-x-x-x-|12-#-x-x-x-x-x-x-|
|12-#-x-x-x-x-x-x-|12-#-x-x-x-x-x-x-|12-#-x-x-x-x-x-x-|12-#-x-x-x-x-x-x-|
|10-#-x-x-x-x-x-x-|10-#-x-x-x-x-x-x-|10-#-x-x-x-x-x-x-|10-#-x-x-x-x-x-x-|
|-----------------|-----------------|-----------------|-----------------|

(start with lyrics)
 dm
  1 + 2 + 3 + 4 +   1 + 2 + 3 + 4 +   1 + 2 + 3 + 4 +   1 + 2 + 3 + 4 + 
|10-#-------------|10-#-------------|10-#-------------|10-#-------------|
|10-#-x-x-x-x-x-x-|10-#-x-x-x-x-x-x-|10-#-x-x-x-x-x-x-|10-#-x-x-x-x-x-x-|
|12-#-x-x-x-x-x-x-|12-#-x-x-x-x-x-x-|12-#-x-x-x-x-x-x-|12-#-x-x-x-x-x-x-|
|12-#-x-x-x-x-x-x-|12-#-x-x-x-x-x-x-|12-#-x-x-x-x-x-x-|12-#-x-x-x-x-x-x-|
|10-#-x-x-x-x-x-x-|10-#-x-x-x-x-x-x-|10-#-x-x-x-x-x-x-|10-#-x-x-x-x-x-x-|
|-----------------|-----------------|-----------------|-----------------|

 dm
  1 + 2 + 3 + 4 +   1 + 2 + 3 + 4 +   1 + 2 + 3 + 4 +   1 + 2 + 3 + 4 + 
|10-#-------------|10-#-------------|10-#-------------|10-#-#-#-#-#-#-#-|
|10-#-x-x-x-x-x-x-|10-#-x-x-x-x-x-x-|10-#-x-x-x-x-x-x-|10-#-#-#-#-#-#-#-|
|12-#-x-x-x-x-x-x-|12-#-x-x-x-x-x-x-|12-#-x-x-x-x-x-x-|12-#-#-#-#-#-#-#-|
|12-#-x-x-x-x-x-x-|12-#-x-x-x-x-x-x-|12-#-x-x-x-x-x-x-|12-#-#-#-#-#-#-#-|
|10-#-x-x-x-x-x-x-|10-#-x-x-x-x-x-x-|10-#-x-x-x-x-x-x-|10-#-#-#-#-#-#-#-|
|-----------------|-----------------|-----------------|-----------------|


CHORUS 2 (2x)



OUTRO (CHORUS 2):

clean guitar/
play the chords of CHORUS 2

end on dm: E -5
           B -6
           G -7
           D -7
           A -5
           E --




LYRICS:


CHORUS 1:
Standing in line to 
See the show tonight 
And there's a light on 
Heavy glow 
By the way I tried to say 
I'd be there waiting for 
Dani the girl is 
Singing songs to me 
Beneath the marquee 
Overload 

VERSE 1:
Steak knife
Card shark 
Con job
Boot cut 
Skin that flick 
She's such a little DJ 
Get there quick by street
But not the freeway 
Turn that trick 
To make a little leeway 
Beat that nic 
But not the way that we play 
Dogtown
Blood bath 
Rib cage
Soft tal 

CHORUS 2 (same words as CHORUS 1):

VERSE 2:
Black jack 
Dope dick 
Pawn shop 
Quick pick 
Kiss that dyke 
I know you want to hold one 
Not on strike 
But I'm about to bowl one 
Bite that mic 
I know you never stole one 
Girls that like 
A story, so I told one 
Song bird 
Main line 
Cash back 
Hard top 

CHORUS 1

VERSE 3

CHORUS 2 (2x)

OUTRO (CHORUS 2):
Standing in line to 
See the show tonight 
And there's a light on 
Heavy glow 
By the way I tried to say 
I'd be there waiting for 
Guitar Tabs FROM THE TOP 60 ARTISTS
1.  AC/DC Guitar Tabs
2.  AEROSMITH Guitar Tabs
3.  ALANIS MORISSETTE Guitar Tabs
4.  BEATLES Guitar Tabs
5.  BLINK 182 Guitar Tabs
6.  BOB DYLAN Guitar Tabs
7.  BOB MARLEY Guitar Tabs
8.  BUSH Guitar Tabs
9.  COLDPLAY Guitar Tabs
10.  DAVE MATTHEWS Guitar Tabs
11.  ERIC CLAPTON Guitar Tabs
12.  GRATEFUL Dead Guitar Tabs
13.  GREEN DAY Guitar Tabs
14.  IRON MAIDEN Guitar Tabs
15.  JACK JOHNSON Guitar Tabs
16.  JIMI HENDRIX Guitar Tabs
17.  JOHN MAYER Guitar Tabs
18.  JOHNNY CASH Guitar Tabs
19.  LED ZEPPELIN Guitar Tabs
20.  LIMP BIZKIT Guitar Tabs
21.  METALLICA Guitar Tabs
22.  NEIL YOUNG Guitar Tabs
23.  NIRVANA Guitar Tabs
24.  PEARL JAM Guitar Tabs
25.  PINK FLOYD Guitar Tabs
26.  RADIOHEAD Guitar Tabs
27  RED HOT CHILI PEPPERS Guitar Tabs
28  ROLLING STONES Guitar Tabs
29  STONE TEMPLE PILOTS Guitar Tabs
30  U2 Guitar Tabs
31.  VAN HALEN Guitar Tabs
32.  WEEZER Guitar Tabs