Guitar Resources


Cabron (2) (By RED HOT CHILI PEPPERS)
 
Song: Cabron
Album: By The Way
Artist: RedHotChiliPeppers
Tabbed by: jerrymustbeslaughtered@hotmail.com



The other tab on this site says capo 7th fret, but I put it on the 12th. 
Either way, I'm positive John uses one somewhere on the neck. 
But for this tab, you can put the capo on the 12th fret, or just play without. 
All notes are relative to the capo.

This is my first tab, so e-mail me if I screwed anything up.



Intro (0:00)
  Guitar 1 (Acoustic)   G
e|-5----2----|-5----2-----|---------------|------------------|-x----|
b|-3----3----|-3----3-----|-0-----0-------|-0-----0----------|-2----|
G|-2----4----|-2----4-----|---0-----0---0-|---0-----0---0----|-2----|
D|-4----4----|-4----4-----|-----0-----0---|-----0-----0------|-2----|
A|-0----2----|-0----2-----|---------------|------------------|-0----|
E|-----------|----------3-|---------------|------------------|------|
  These chords sound right, not sure about picking pattern on G


Verse (0:15, 1:15) 
e|-----------|-2---------------|-----------|-2-------------|
b|-----------|-3---/-/-/-/-/-/-|-----------|-3---/-/-/-/-/-|
G|-----------|-2---/-/-/-/-/-/-|-----------|-4---/-/-/-/-/-|
D|-4h2h0---0-|-0---/-/-/-/-/-/-|-2h0-------|-4---/-/-/-/-/-|
A|-------4---|-----------------|-----4h0---|-2-------------|
E|-----------|-----------------|---------2-|-2-------------|
  Play 6x on both verses. The second 
  verse starts without the first bar.


Chorus (0:41, 1:41, 2:41)
e|-3---------------------------|-x-------------------------|
b|-0-/-/-/-/-/-/-/-/-/-/-/-/-/-|-2-/-/-/-/-/-/-/-/-/-/-/-/-|
G|-0-/-/-/-/-/-/-/-/-/-/-/-/-/-|-2-/-/-/-/-/-/-/-/-/-/-/-/-|
D|-0-/-/-/-/-/-/-/-/-/-/-/-/-/-|-2-/-/-/-/-/-/-/-/-/-/-/-/-|
A|-x---------------------------|-0-------------------------|
E|-3---------------------------|---------------------------|
  Guitar 1                             
e|-2---------------------------|-2-------------------------|
b|-3-/-/-/-/-/-/-/-/-/-/-/-/-/-|-3-/-/-/-/-/-/-/-/-/-/-/-/-|
G|-2-/-/-/-/-/-/-/-/-/-/-/-/-/-|-4-/-/-/-/-/-/-/-/-/-/-/-/-|
D|-0-/-/-/-/-/-/-/-/-/-/-/-/-/-|-4-/-/-/-/-/-/-/-/-/-/-/-/-|
A|-----------------------------|-2-------------------------|
E|-----------------------------|---------------------------|
|| Guitar 2 (Acoustic)                                     |
e|-5-5-5-5-5-55--5-3-2-0-2-----|-2-2-2-2-2-2-2-2-2-2-2-2-0-|
b|-----------------------------|---------------------------|
G|-----------------------------|---------------------------|
D|-----------------------------|---------------------------|
A|-----------------------------|---------------------------|
E|-----------------------------|---------------------------|
  Repeat the whole thing two times.
  On second time, Guitar plays Riff A instead.
  After second time, play first two bars twice, and
  go back to verse.


Riff A
  Guitar 2
e|-5--5-5-5--5-5--5-5---7--9---|-9--9-9-9--9-9--7-7---7--7-|
b|-----------------------------|---------------------------|
G|-----------------------------|---------------------------|
D|-----------------------------|---------------------------|
A|-----------------------------|---------------------------|
E|-----------------------------|---------------------------|


Interlude (2:14, 2:57)
  Guitar 3 (Electric w/ slide)
e|-----------------------------|---------------------------|
b|-7---------------------------|---------------------------|
G|-------------------4---/---6-|-4----------------6-----/9-|
D|-----------------------------|---------------------------|
A|-----------------------------|---------------------------|
E|-----------------------------|---------------------------|
||Guitar 4 (Electric w/ slide) |(2:23)                     |
e|-----------------------------|---------------------------|
b|-----------------------------|---------------------------|
G|-----------------------------|---------------------------|
D|-7-----------------5---/---7-|-4----------------4-----/7-|
A|-----------------------------|---------------------------|
E|-----------------------------|---------------------------|

 (2:31)
  Guitar 1
e|-----------------------------|
b|-----------------------------|
G|-----------------------------|
D|-7-/-9----(9)-\-5------------|
A|-----------------------------|
E|-----------------------------|
||Guitar 2                     |
e|-----------------------------|
b|-----------------------------|
G|-----------------------------|
D|-----------------------------|
A|-7-/-9----(9)-\-5------------|
E|-----------------------------|
  The 4th guitar joins the third after Guitar 3
  has played the first two riffs twice.
  Guitars 1 and 2 play chorus.
  

Outro (2:57)
  Guitar 1
e|-2---------------------------|-2-------------------------|
b|-3-/-/-/-/-/-/-/-/-/-/-/-/-/-|-3-/-/-/-/-/-/-/-/-/-/-/-/-|
G|-2-/-/-/-/-/-/-/-/-/-/-/-/-/-|-4-/-/-/-/-/-/-/-/-/-/-/-/-|
D|-0-/-/-/-/-/-/-/-/-/-/-/-/-/-|-4-/-/-/-/-/-/-/-/-/-/-/-/-|
A|-----------------------------|-2-------------------------|
E|-----------------------------|---------------------------|
||Guitar 2  (Play Riff A occasionally)                     |
e|-5-5-5-5-5-55--5-3-2-0-2-----|-2-2-2-2-2-2-2-2-2-2-2-2-0-|
b|-----------------------------|---------------------------|
G|-----------------------------|---------------------------|
D|-----------------------------|---------------------------|
A|-----------------------------|---------------------------|
E|-----------------------------|---------------------------|
||Guitar 3                     |                           |
e|-----------------------------|---------------------------|
b|-7---------------------------|---------------------------|
G|-------------------4---/---6-|-4----------------6-----/9-|
D|-----------------------------|---------------------------|
A|-----------------------------|---------------------------|
E|-----------------------------|---------------------------|
||Guitar 4                     |                           |
e|-----------------------------|---------------------------|
b|-----------------------------|---------------------------|
G|-----------------------------|---------------------------|
D|-7-----------------5---/---7-|-4----------------4-----/7-|
A|-----------------------------|---------------------------|
E|-----------------------------|---------------------------|
||Guitar 5 (Electric w/ slide) |                           |
e|-----------------------------|---------------------------|
b|-3---------------------------|---------------------------|
G|-----------------------------|------------------2-----/5-|
D|-----------------------------|---------------------------|
A|-------------------5---/---7-|-5-------------------------|
E|-----------------------------|---------------------------|
  The Outro introduces the fifth guitar, 
  I don't think it was in the interlude.
  

Final Note...(3:30)
  1
e|-2-|
b|-3-|
G|-2-|
D|-0-|
A|---|
E|---|
 |2  |
e|-5-|
b|---|
G|---|
D|---|
A|---|
E|---|
 |3  |
e|---|
b|-7-|
G|---|
D|---|
A|---|
E|---|
 |4  |
e|---|
b|---|
G|---|
D|-7-|
A|---|
E|---|
 |5  |
e|---|
b|-3-|
G|---|
D|---|
A|---|
E|---|

  This whole thing can be converted into two guitars,
  if you can train your fingers to hit the notes right.
  If you only have two guitars performing the last note,
  have one guitar do a standard D (XX0232), and have the
  other one do this: (XXX775)
Guitar Tabs FROM THE TOP 60 ARTISTS
1.  AC/DC Guitar Tabs
2.  AEROSMITH Guitar Tabs
3.  ALANIS MORISSETTE Guitar Tabs
4.  BEATLES Guitar Tabs
5.  BLINK 182 Guitar Tabs
6.  BOB DYLAN Guitar Tabs
7.  BOB MARLEY Guitar Tabs
8.  BUSH Guitar Tabs
9.  COLDPLAY Guitar Tabs
10.  DAVE MATTHEWS Guitar Tabs
11.  ERIC CLAPTON Guitar Tabs
12.  GRATEFUL Dead Guitar Tabs
13.  GREEN DAY Guitar Tabs
14.  IRON MAIDEN Guitar Tabs
15.  JACK JOHNSON Guitar Tabs
16.  JIMI HENDRIX Guitar Tabs
17.  JOHN MAYER Guitar Tabs
18.  JOHNNY CASH Guitar Tabs
19.  LED ZEPPELIN Guitar Tabs
20.  LIMP BIZKIT Guitar Tabs
21.  METALLICA Guitar Tabs
22.  NEIL YOUNG Guitar Tabs
23.  NIRVANA Guitar Tabs
24.  PEARL JAM Guitar Tabs
25.  PINK FLOYD Guitar Tabs
26.  RADIOHEAD Guitar Tabs
27  RED HOT CHILI PEPPERS Guitar Tabs
28  ROLLING STONES Guitar Tabs
29  STONE TEMPLE PILOTS Guitar Tabs
30  U2 Guitar Tabs
31.  VAN HALEN Guitar Tabs
32.  WEEZER Guitar Tabs