Guitar Resources


Californication (4) (By RED HOT CHILI PEPPERS)
 
#-----------------------------------------------------------------------------#
#-- File created with Instab - http://www.pconline.com/~smcarey/instab.html --#
#-----------------------------------------------------------------------------#

Author/Artist: Red Hot Chili Peppers
Title: Californication
Album: "
Transcribed by: Mike Smoljanovic
Email: mikesmally@hotmail.com

Intro:  (gtr. 1)

-|-------------------|-------------------|-------------------|----------------
-|------0-1----------|-------------------|------0-1----------|----------------
-|-------------------|------0-2----------|-------------------|------0-2-------
-|----2--------------|-------------------|----2--------------|----------------
-|--0----------------|----3--------------|--0----------------|----3-----------
-|-------------------|--1----------------|-------------------|--1-------------
 1st-5th Verses                                                               

-|-------------------|-------------------|------------------------------------
-|--------0--1-------|-------------------|------------------------------------
-|-------------------|--------0--2-------|------------------------------------
-|-----2-------------|-------------------|------------------------------------
-|--0----------------|-----3-------------|------------------------------------
-|-------------------|--1----------------|------------------------------------
                                                                              

-|-------------------|-------------------|------------------------------------
-|------0-1----------|-------------------|------------------------------------
-|-------------------|--------0--2-------|------------------------------------
-|----2--------------|-------------------|------------------------------------
-|--0----------------|-----3-------------|------------------------------------
-|-------------------|--1----------------|------------------------------------
                                                                              

-|-------------------|-------------------|-------------------1----------------
-|--------5----------|-------------------|-------------------3----------------
-|-------------------|--------4----------|-------2--------2-------------------
-|-----5-----5-------|-------------------|-------------0----------------------
-|--3----------------|-----5-----5-------|----3-----3-------------------------
-|-------------------|--3----------------|-1----------------------------------
 Gtr. 2 plays Riff A 3rd verse               Gtr.2 plays fill 1 on 1st verse  

-|-------------------|-------------------|-------------------|----------------
-|--------0----------|-------------------|--------0----------|----------------
-|-----------1-------|--------0--2-------|-----------1-------|--------0--2----
-|-----2-------------|-------------------|-----2-------------|----------------
-|--0----------------|-----3-------------|--0----------------|-----3----------
-|-------------------|--1----------------|-------------------|--1-------------
  play 13 X             play 13 X                                             

-|--0----------------|--x----------------|-------------------|----------------
-|--1----------------|--1----------------|-------------------|----------------
-|--2----------------|--2----------------|-------------------|----------------
-|--2----------------|--3----------------|-------------------|----------------
-|--0----------------|--0----------------|-------------------|----------------
-|--0----------------|--x----------------|-------------------|----------------
 SOLO:                                                                        

-|----9-----------9-----------------------------------------------------------
-|-10----------10-------------------------------------------------------------
-|------11\/--------11\/--11-11-11-11-9----------9--11\/-9--------------------
-|--------------------------------------11--9-11-----------11-----------------
-|----------------------------------------------------------------------------
-|----------------------------------------------------------------------------
                                                                              

-|----9-12-14-----9-12-14\/--17-16-14----14-----------------------------------
-|-10----------19---------------------17----17-14-17-14-----14/-14/-----------
-|------------------------------------------------------16/-16/-16/-----------
-|----------------------------------------------------------------------------
-|----------------------------------------------------------------------------
-|----------------------------------------------------------------------------
                                                                              

-|----------------------------------------------------------------------------
-|-17-14-17-19\/-17----17------------17--15--14-------------------------------
-|------------------18----18--16--14------------14----------------------------
-|----------------------------------------------------------------------------
-|----------------------------------------------------------------------------
-|----------------------------------------------------------------------------
                                                                              

Guitar Tabs FROM THE TOP 60 ARTISTS
1.  AC/DC Guitar Tabs
2.  AEROSMITH Guitar Tabs
3.  ALANIS MORISSETTE Guitar Tabs
4.  BEATLES Guitar Tabs
5.  BLINK 182 Guitar Tabs
6.  BOB DYLAN Guitar Tabs
7.  BOB MARLEY Guitar Tabs
8.  BUSH Guitar Tabs
9.  COLDPLAY Guitar Tabs
10.  DAVE MATTHEWS Guitar Tabs
11.  ERIC CLAPTON Guitar Tabs
12.  GRATEFUL Dead Guitar Tabs
13.  GREEN DAY Guitar Tabs
14.  IRON MAIDEN Guitar Tabs
15.  JACK JOHNSON Guitar Tabs
16.  JIMI HENDRIX Guitar Tabs
17.  JOHN MAYER Guitar Tabs
18.  JOHNNY CASH Guitar Tabs
19.  LED ZEPPELIN Guitar Tabs
20.  LIMP BIZKIT Guitar Tabs
21.  METALLICA Guitar Tabs
22.  NEIL YOUNG Guitar Tabs
23.  NIRVANA Guitar Tabs
24.  PEARL JAM Guitar Tabs
25.  PINK FLOYD Guitar Tabs
26.  RADIOHEAD Guitar Tabs
27  RED HOT CHILI PEPPERS Guitar Tabs
28  ROLLING STONES Guitar Tabs
29  STONE TEMPLE PILOTS Guitar Tabs
30  U2 Guitar Tabs
31.  VAN HALEN Guitar Tabs
32.  WEEZER Guitar Tabs