Guitar Resources


Californication (5) (By RED HOT CHILI PEPPERS)
 
##################################################################################
# This file is the author's own work and represents their interpretation of the  #
# song. You may only use this file for private study, scholarship, or research.  #
##################################################################################

The Red Hot Chili Peppers
"Californication"
From"Californication"album
Tuning Info
#####################
e as e
B as B
G as G
D as D
A as A
E as E
#####################
INTRO/VERSE
Guitar 1 (Clean)
Riff 1   
      Am                                 F    
e|----------------------------------------------------|
B|--------0---1---------------------------------------|
G|-------------------------0---2----------------------|
D|----2-----------------------------------------------|
A|0--------------------3------------------------------|
E|-----------------1----------------------------------|
"Psychic spies from China try to...

  C                  G                  F                          Dm
e|------------------------------------------------------------------1------|
B|------5-------------------------------------------------------3---3------|
G|---------------------------4--------------------2-----------------2------|
D|---5-------5-----------------------------------------------0------0------|
A|3---------------------5----------5----------3---------3------------------|
E|-----------------3--------------------1----------------------------------|
"if you want these kind of dreams__it's Cal-  i-  for-  ni-  ca-  tion_____
(REPEAT SIMILAR FOR ALL THE VERSES)

INTERLUDE
Just make Am and F:
 Guitar 1
        Am             ...         F
e|0--0--0--0--0------------------1--1--1--1--1-----------------------------|
B|1--1--1--1--1------------------1--1--1--1--1-----------------------------|
G|2--2--2--2--2------------------2--2--2--2--2-----------------------------|
D|2--2--2--2--2------------------3--3--3--3--3-----------------------------|
A|0--0--0--0--0------------------3--3--3--3--3-----------------------------|
E|-------------------------------1--1--1--1--1-----------------------------|
"Pay your surgeon very well...

CHORUS
Guitar 1
   C                G7         Dm9?         Am
e|3---3--3--3--3----1----x--x--0---0---0----0--0------------|
B|1---1--1--1--1----0----x--x--6---6---6----1--1------------|
G|0---0--0--0--0----0----x--x--5---5---5----2--2------------|
D|2---2--2--2--2----0----x--x--0---0---0----2--2------------|
A|3---3--3--3--3----2----x--x---------------0--0------------|
E|------------------3---------------------------------------|
"Dream of Cal- i - for -ni-ca  -  tion____________-
REPEAT SIMILAR (SOMETIMES THE Dm9? BECOME A SYMPLY Dm)
Dm      XX0231

GUITAR SOLO
Guitar 2 (slight dist)
                   (longer bend)-
e|----9--------|----9-----------|----------------------------------------|
B|10-----------|10--------------|----------------------------------------|
G|-------11br--|--------11br----|11-11-11--11\9------------9--11br-9-----|
D|-------------|----------------|--------------11-11---9-11----------11--|
A|-------------|----------------|----------------------------------------|
E|-------------|----------------|----------------------------------------|
                           
e|----9--12-14-|----9--12-14br14|17-16-14--14-------------------------------14br-12--12--------12-10-9---|
B|10-----------|10--------------|--------17--17-14-17-14-14--14--14---17--14-------14--14-12-10-------10-|
G|-------------|----------------|------------------------16b-16b-16b-------------------------------------|
D|-------------|----------------|------------------------------------------------------------------------|
A|-------------|----------------|------------------------------------------------------------------------|
E|-------------|----------------|------------------------------------------------------------------------|

THAT'S ALL. SONG TABBED BY BRUNO GAMBA 2002.ANY QUESTION  nobbru@libero.it
Guitar Tabs FROM THE TOP 60 ARTISTS
1.  AC/DC Guitar Tabs
2.  AEROSMITH Guitar Tabs
3.  ALANIS MORISSETTE Guitar Tabs
4.  BEATLES Guitar Tabs
5.  BLINK 182 Guitar Tabs
6.  BOB DYLAN Guitar Tabs
7.  BOB MARLEY Guitar Tabs
8.  BUSH Guitar Tabs
9.  COLDPLAY Guitar Tabs
10.  DAVE MATTHEWS Guitar Tabs
11.  ERIC CLAPTON Guitar Tabs
12.  GRATEFUL Dead Guitar Tabs
13.  GREEN DAY Guitar Tabs
14.  IRON MAIDEN Guitar Tabs
15.  JACK JOHNSON Guitar Tabs
16.  JIMI HENDRIX Guitar Tabs
17.  JOHN MAYER Guitar Tabs
18.  JOHNNY CASH Guitar Tabs
19.  LED ZEPPELIN Guitar Tabs
20.  LIMP BIZKIT Guitar Tabs
21.  METALLICA Guitar Tabs
22.  NEIL YOUNG Guitar Tabs
23.  NIRVANA Guitar Tabs
24.  PEARL JAM Guitar Tabs
25.  PINK FLOYD Guitar Tabs
26.  RADIOHEAD Guitar Tabs
27  RED HOT CHILI PEPPERS Guitar Tabs
28  ROLLING STONES Guitar Tabs
29  STONE TEMPLE PILOTS Guitar Tabs
30  U2 Guitar Tabs
31.  VAN HALEN Guitar Tabs
32.  WEEZER Guitar Tabs