Guitar Resources


Cant Stop (4) (By RED HOT CHILI PEPPERS)
 
Can't stop, Red Hot Chili Peppers
"Can't Stop"
from "By The Way"
Words and music by Anthony Kiedis, Flea, John Frusciante and Chad Smith
Warner Bros. Music 2002
                          
Voici la tablature officielle issue du bouquin de tablatures, 
tapée par gatchan: gatchan.hope.guitar@caramail.com

Intro
------------------------------------|-----------------------------------------
------------------------------------|-----------------------------------------
------------------------------------|-----------------------------------------
------------------------------------|-----------------------------------------
-5-7^--5-7^--5-7^----5-7^--5-7------|-----5-7^--5-7^--5-7^----5-7^--5-7------- 
------------------------------------|-----------------------------------------
 
------------------------------------|-----------------------------------------
------------------------------------|-----------------------------------------
------------------------------------|-----------------------------------------
------------------------------------|-----------------------------------------
-5-7^--5-7b-(7)--5-7^--5----7--5--7-|-----5-7^--5-7^--5-7^----5-7^--5-7------- 
-------------------------7----------|-----------------------------------------

------------------------------------|-----------------------------------------
------------------------------------|-----------------------------------------
------------------------------------|-----------------------------------------
------------------------------------|-----------------------------------------
-5-7^--5-7^--5-7^----5-7^--5-7------|-----5-7^--5-7^--5-7^----5-7^--5-7------- 
------------------------------------|-----------------------------------------
E7(no3rd)                            Dsus2
------------------------------------|-----------------------------------------
------------------------------------|-----------------------------------------
--------7-9--------7-x-9------------|----7-9--------7-x-9-----7---------------
------------------------------------|--0-------0-0-0----------x--0--0---------
---7-7-------7-7-7-------7-7-7------|-------------------------0---------------
------------------------------------|-----------------------------------------
Bm(add4)                             Cadd9
------------------------------------|-----------------------------------------
------------------------------------|-----------------------------------------
------7--9---------7--x--9--7-------|-----7--9-----------7--x--9-----9--------
------x------------x--x-----x-------|-----x--------------x--x--------x--------
------x------------x--x-----x-------|-----x--------------x--x--------x--------
---7--7-----7-7-7--7--x-----7--7--7-|--8--8-----8--8--8--8--x--------8--8-----

Verse                                                                        

E7(no3rd)        Dsus2
Bm(add4)         Cadd9
E7(no3rd)        Dsus2
Bm(add4)         Cadd9
E7(no3rd)        Dsus2
Bm(add4)         Cadd9
E7(no3rd)        Dsus2

Bm(add4)                             Cmaj7
------------------------------------|-7------7------7------7------7----x--x---
------------------------------------|---8------8------8------8------8--x--x---
------7--9----------7--x--9---9--9--|-----9------9------9------9-------x--x---
------x-------------x--x------------|-----------------------------------------
------x-------------x--x------------|-----------------------------------------
---7--7-----7--7-7--7--x------------|-----------------------------------------

Chorus
G              D                Bm             Cmaj7
-3----3--3---------------------|---------------7----7---7---7---x-------------
-3----3--3--x--7---7--7--7-x-x-|-7----7--7--x--8----8---8---8---x-------------
-4----4--4--x--7---7--7--7-x-x-|-7----7--7--x--9----9---9---9---x-------------
-5----5--5--x--7---7--7--7-x-x-|-9----9--9--x--10---10--10--10--x-------------
-x----x--x-----5---5--5--5-----|-x----x--x-----x----x---x---x-----------------
-3----3--3---------------------|-7----7--7-----8----8---8---8-----------------
 
G           D            Bm            Cmaj7              G        D
-3---3--3---------------|--------------7----7---7---7--x-|3--3-3--------------
-3---3--3-x-7--7--7-x-x-|-7---7--7--x--8----8---8---8--x-|3--3-3-x-7--7-7-x-x-
-4---4--4-x-7--7--7-x-x-|-7---7--7--x--9----9---9---9--x-|4--4-4-x-7--7-7-x-x-
-5---5--5-x-7--7--7-x-x-|-9---9--9--x--10---10--10--10-x-|5--5-5-x-7--7-7-x-x-
-x---x--x---5--5--5-----|-x---x--x-----x----x---x---x----|x--x-x---5--5-5-----
-3---3--3---------------|-7---7--7-----8----8---8---8----|3--3-3--------------

Bm            Cmaj7                G           D             Bm7   Cmaj7
--------------7----7---7---7---x-|-3---3-3------------------|------7----------
-7---7--7--x--8----8---8---8---x-|-3---3-3--x--7--7--7--7---|-10---8----------
-7---7--7--x--9----9---9---9---x-|-4---4-4--x--7--7--7--7---|-7----9----------
-9---9--9--x--10---10--10--10--x-|-5---5-5--x--7--7--7--7---|-9----10---------
-x---x--x-----x----x---x---x-----|-x---x-x-----5--5--5--5---|-----------------
-7---7--7-----8----8---8---8-----|-3---3-3------------------|-----------------

Bridge
 Em               D           D6   Bm    Bm7       C           D
----------------|----------------|------------7-|-----------------------------
-12--12--12--12-|-10--10--10--12-|-7--7--10---8-|--8---8---8---10-------------
-12--12--12--12-|-11--11--11--11-|-7--7--7------|--9---9---9---11-------------
-14--14--14--14-|-12--12--12--12-|-9--9--9------|--10--10--10--12-------------
-14--14--14--14-|-12--12--12--12-|-9--9--9------|------10--10--12-------------
----------------|----------------|--------------|-----------------------------

Em           C/B  D           D6   Bm              C           D
----------------|----------------|--------------|-----------------------------
-12--12--12--13-|-10--10--10--12-|-7--7--7----7-|--8---8---8---10-------------
-12--12--12--12-|-11--11--11--11-|-7--7--7----7-|--9---9---9---11-------------
-14--14--14--14-|-12--12--12--12-|-9--9--9----9-|--10--10--10--12-------------
-14--14--14--14-|-12--12--12--12-|-9--9--9----9-|--10--10--10--12-------------
----------------|----------------|--------------|-----------------------------

Em               Em(add6)               D                D6
---12-----12---------------------------|---10-----10--------------------------
-----12-----12---13---13-----13-----13-|-----10-----10---12---12-----12-----12
-------12-----12---12---12-----12------|-------11-----11---11---11-----11-----
14------------------------14-----14----|12------------------------12-----12---
---------------------------------------|--------------------------------------
---------------------------------------|--------------------------------------

Bm7                                     Cmaj7                      D
---------------------------------------|---7-----7-----7---7------------------
---10-----10-----10---10-----10-----10-|-----8-----8-----8-8---------10-------
-----11-----11-----11---11-----11------|-------9-----9-------9----------11----
-9-----12-----12----------12-----12----|10---------------------10/12-------12-
---------------------------------------|--------------------------------------
---------------------------------------|--------------------------------------
 
Em               Em(add6)               D                D6
---12-----12---------------------------|---10-----10--------------------------
-----12-----12---13---13-----13-----13-|-----10-----10---12---12-----12-----12
-------12-----12---12---12-----12------|-------11-----11---11---11-----11-----
14------------------------14-----14----|12------------------------12-----12---
---------------------------------------|--------------------------------------
---------------------------------------|--------------------------------------

Bm7                                        C                           A
---------------------------------------|-7-----7------7----7--7---7-----------
---10-----10-----10---10-----10-----10-|---8-----8----8----8--8---8-----------
-----11-----11-----11---11-----11------|-----9-----9--9----9--9---9-----------
-9-----12-----12----------12-----12----|--------------------------------------
---------------------------------------|--------------------------------------
---------------------------------------|--------------------------------------

Interlude
 E5             D5           B5           C5
--------------|------------|------------|-------------------------------------
-15b----15b---|-15----15---|-12----12---|-------------------------------------
--------------|------------|------------|-12----12------12---12---12----------
--------------|------------|------------|-------------------------------------
--------------|------------|------------|-------------------------------------
--------------|------------|------------|-------------------------------------

Verse 
 E5                                        D5
-----------------------------------------|------------------------------------
-15b---------------------17b-(17)--------|-15---------------------15b-(15)----
-----------------------------------------|------------------------------------
-----------------------------------------|------------------------------------
-----------------------------------------|------------------------------------
-----------------------------------------|------------------------------------
                                                                              
 B5                                           C5
-----------------------------------------|------------------------------------
-12----------------------15--------------|------------------------------------
-----------------------------------------|-12-14----12------(12)\11-----------
-----------------------------------------|----------------------------14\-----
-----------------------------------------|------------------------------------
-----------------------------------------|------------------------------------

E7(no3rd)        Dsus2
Bm(add4)         Cadd9
E7(no3rd)        Dsus2
Bm(add4)         Cadd9
E7(no3rd)        Dsus2

 Bm(add4)                       C
-----------------------------|------------------------------------------------
-----------------------------|------------------------------------------------
---7--9--------7--x--9--9--9-|-9b-(9)-9-9b-(9)-9-9b-(9)-9-9b-(9)-9-9b-(9)-9-9-
---x-----------x--x-----x--x-|-x------x-x------x-x------x-x------x-x------x-x-
---x-----------x--x-----x--x-|-x------x-x------x-x------x-x------x-x------0-0-
-7-7----7-7-7--7--x-----7--7-|-8------8-8------8-8------8-8------8-8----------

E7(no3rd)        Dsus2

 Bm(add4)                        Cadd9
--------------------------------|---------------------------------------------
--------------------------------|---------------------------------------------
---7--9-------7--7---7--7--7--7-|---7--9--9--7--7--9---7--7--9--7--7--9--7--7-
--------------x--x---x--x--x--x-|---x-----x-----x--x---x--x--x--x--x--x--x--x-
--------------x--x---x--x--x--x-|---x-----x-----x--x---x--x--x--x--x--x--x--x-
-7------7--7--7--7---7--7--7--7-|-8-8-----8-----8--8---8--8--8--8--8--8--8--8-

 E5  N.C.
-----------------------------------------|------------------------------------
-----------------------------------------|------------------------------------
-----------------------------------------|------------------------------------
-----------------------------------------|------------------------------------
-7---------------------------------------|------------------------------------
-----------------------------------------|------------------------------------
Guitar Tabs FROM THE TOP 60 ARTISTS
1.  AC/DC Guitar Tabs
2.  AEROSMITH Guitar Tabs
3.  ALANIS MORISSETTE Guitar Tabs
4.  BEATLES Guitar Tabs
5.  BLINK 182 Guitar Tabs
6.  BOB DYLAN Guitar Tabs
7.  BOB MARLEY Guitar Tabs
8.  BUSH Guitar Tabs
9.  COLDPLAY Guitar Tabs
10.  DAVE MATTHEWS Guitar Tabs
11.  ERIC CLAPTON Guitar Tabs
12.  GRATEFUL Dead Guitar Tabs
13.  GREEN DAY Guitar Tabs
14.  IRON MAIDEN Guitar Tabs
15.  JACK JOHNSON Guitar Tabs
16.  JIMI HENDRIX Guitar Tabs
17.  JOHN MAYER Guitar Tabs
18.  JOHNNY CASH Guitar Tabs
19.  LED ZEPPELIN Guitar Tabs
20.  LIMP BIZKIT Guitar Tabs
21.  METALLICA Guitar Tabs
22.  NEIL YOUNG Guitar Tabs
23.  NIRVANA Guitar Tabs
24.  PEARL JAM Guitar Tabs
25.  PINK FLOYD Guitar Tabs
26.  RADIOHEAD Guitar Tabs
27  RED HOT CHILI PEPPERS Guitar Tabs
28  ROLLING STONES Guitar Tabs
29  STONE TEMPLE PILOTS Guitar Tabs
30  U2 Guitar Tabs
31.  VAN HALEN Guitar Tabs
32.  WEEZER Guitar Tabs