Guitar Resources


Dosed (2) (By RED HOT CHILI PEPPERS)
 
Date: 25 Jun 2002 17:08:58 -0000
From: runar_go@down.tc
From: "Freddy Desposorio" <sliver_3@hotmail.com>
Date: Mon, 12 Aug 2002 11:57:58 -0600
Subject: r/red_hot_chili_peppers/dosed.tab

Artist: Red Hot Chili Peppers
Title: "Can't Stop"
Album: By the Way
Standard Tuning (E,A,D,G,B,e)

I just tabbed the intro because there was only two guitar parts
tabbed out instedof the 4.... and I play bass, so I don't know
how the rest goes.

p    e-----------------------------------------------------
l    B---------5~----------5~----------7~----------8------
a g1 G-----------------------------------------------------
y    D------5-----------5-----------7-----------9----------
e    A---3-----------3-----------5-----------7-------------
d    E-----------------------------------------------------
         1  &  2  &  1  &  2  &  1  &  2  &  1  &  2  &
s
i
m    e--12----12----12----12----10----10-----7-----7-------
u    B------12----12----12----10----10-----8-----8-----12--
l    G----12----12----12----11----11-----9-----9-----12----
t g2 D-----------------------------------------------------
a    A-----------------------------------------------------
n    E-----------------------------------------------------
e         1  &  2  &  1  &  2  &  1  &  2  &  1  &  2  &
o
u
s    e-----------------------------------------------|-----------------|
l    B---------------------------3-------------------|--------3--5----|
y g3 G---------------------4--4-----4--------4-------|--4--4--------4--|
     D-----------------------------------------------|-----------------|
     A-----------------------------------------------|-----------------|
4    E-----------------------------------------------|-----------------|
g         1  &  2  &  1  &  2  &  1  &  2  &  1  &  2       4th time
u
i
t    e---------------------------------------------------
a    B---------------------------------------------------
r    G------------------------5--4-----------------------
s g4 D------------------------------7--5-----7-----------
     A---------------------------------------------------
     E---------------------------------------------------
         1  &  2  &  1  &  2  &  1  &  2  &  1  &  2  &


On 5th repetition of intro, guitar 3 goes into this while G1,2, and 4
remain the same

e---10-----------19--17--15--14--15----15--14---------------------------
B---------------------------------------------17--15--17--------3-------
G------11--12-----------------------------------------------4-4---4--4--
D-----------------------------------------------------------------------
A-----------------------------------------------------------------------
E-----------------------------------------------------------------------
    repeat 3x        play once             play once        reapeat 2x


Verse:
e |(12)10----------|P   |-20-19-17-14--15----15-14-12-----12---|
B |----------------|L   |-----------------------------15-------|
G |-------11--12---|A   |--------------------------------------|
D |----------------|Y   |--------------------------------------|
A |----------------|3   |--------------------------------------|
E |----------------|x   |--------------------------------------|

Then a half intro comes in before the next verse.

Chorus (Here I've mostly just jotted down something that fits):
e |-------------------------------15--14--12-10-|
B |-12----14-15-------12--------12--------------|
G |----------------14---------------------------|
D |---------------------------------------------|
A |---------------------------------------------|
E |---------------------------------------------|

e |-------------------------------------------------|
B |-12------12-12-12-13-12--12-12-12-12-12-15-15-15-|
G |------14-----------------------------------------|
D |-------------------------------------------------|
A |-------------------------------------------------|
E |-------------------------------------------------|
  ("All I ever wanted was your life") Play the last two bars twice.

Half intro, then verse

Chorus

"Bridge":
e |-12-12-12-12-12-12-12-12-15-15-15-15-15-15-15-15-15-|
B |----------------------------------------------------|
G |----------------------------------------------------|
D |----------------------------------------------------|
A |----------------------------------------------------|
E |----------------------------------------------------|

Solo/outtro:
e |-12-10-12-10-12-10-12-10-12-10--------|P   
B |-------------------------------12-12--|l   
G |--------------------------------------|a   
D |--------------------------------------|y   
A |--------------------------------------|2   
E |--------------------------------------|x   

e |--------------------------------------------|
B |-13-13-13-13--13-13-13-12-------------------|
G |--------------------------12-12-12-11-12-12-|
D |--------------------------------------------|
A |--------------------------------------------|
E |--------------------------------------------|

e |-----------------------------------------|
B |--13-12-13-12-13-12----------------------|
G |--------------------12-11--11--11--12-12-|
D |-----------------------------------------|
A |-----------------------------------------|
E |-----------------------------------------|

                       |hold bend       |release  |hold bend |release
e |------------------------------------------------------------------|
B |-15--15-15-15-15-----------------------------------------------15-|
G |-----------------16^-16^-16^-16^-16^-16-16--16^--16^--16^--16-----|
D |------------------------------------------------------------------|
A |------------------------------------------------------------------|
E |------------------------------------------------------------------|

That'll be the stuff you need for now! I'll work more on this when the album's
released. Enjoy!

 - Runar

 runar_go@down.tc
Guitar Tabs FROM THE TOP 60 ARTISTS
1.  AC/DC Guitar Tabs
2.  AEROSMITH Guitar Tabs
3.  ALANIS MORISSETTE Guitar Tabs
4.  BEATLES Guitar Tabs
5.  BLINK 182 Guitar Tabs
6.  BOB DYLAN Guitar Tabs
7.  BOB MARLEY Guitar Tabs
8.  BUSH Guitar Tabs
9.  COLDPLAY Guitar Tabs
10.  DAVE MATTHEWS Guitar Tabs
11.  ERIC CLAPTON Guitar Tabs
12.  GRATEFUL Dead Guitar Tabs
13.  GREEN DAY Guitar Tabs
14.  IRON MAIDEN Guitar Tabs
15.  JACK JOHNSON Guitar Tabs
16.  JIMI HENDRIX Guitar Tabs
17.  JOHN MAYER Guitar Tabs
18.  JOHNNY CASH Guitar Tabs
19.  LED ZEPPELIN Guitar Tabs
20.  LIMP BIZKIT Guitar Tabs
21.  METALLICA Guitar Tabs
22.  NEIL YOUNG Guitar Tabs
23.  NIRVANA Guitar Tabs
24.  PEARL JAM Guitar Tabs
25.  PINK FLOYD Guitar Tabs
26.  RADIOHEAD Guitar Tabs
27  RED HOT CHILI PEPPERS Guitar Tabs
28  ROLLING STONES Guitar Tabs
29  STONE TEMPLE PILOTS Guitar Tabs
30  U2 Guitar Tabs
31.  VAN HALEN Guitar Tabs
32.  WEEZER Guitar Tabs