Guitar Resources


I Could Have Lied 2 (By RED HOT CHILI PEPPERS)
 
I COULD HAVE LIED - Red Hot Chili Peppers

Intro:  Gtr 1. (Acoustic)
|-----------------------------------------------------|
|-----------------------------------------------------|
|-----------------------------------------------------|
|-----0---4------0---4------0---4/7-7--5--4-----------|
|-0h2---2------2---2------2---2-----0--------5--------|
|-----------------------------------------3----3------| (Fig. 1) x2

Verse 1:
  There must be something in the way I feel that she don't want me to
feel
Fig. 1 x2

  Stares she bares a-cut me - I don't care you see, so what if I
plead?
|------------------------------------------------------|
|---------------------------2h3p2----------------------|
|------------------------------------------------------|
|-----0---4------0---4-----------4---7--5--4-----------|
|-0h2---2------2----------2----------0--------5--------|
|------------------------------------------3----3------| (Fill 1)

Fig. 1

Prechorus:
  I can never change just what I feel, my face'll never show what is
not real
|-2----2-2-5---5-5--5-5-5--0----0-0--0---0------|
|-4----4-4-7---7-7--7-7-7--0----0-0--0---0------|
|-4----4-4-7---7-7--7-7-7--2----2-2--0---0------|
|-4----4-4-7---7-7--7-7-7--2----2-2--5---5------|
|-2----2-2-2---5-5--5-5-5--0----0-0--5----------|
|------------------------------------3----------|

Fill 1 with Fill 2 (Guitar 2):
|--------------------------------------------------------|
|--------------------------------------------------------|
|------------------------------(10.5)r9-7----------------|
|--------------------------------------------------------|
|--------------------------------------------------------|
|--------------------------------------------------------| (Fill 2)

Fig. 1
 
Verse 2:
  A mountain never seems to have a need to speak a look that shares so
many see
Fig 1. x4, 2nd time fill:  1      2      3      4
|--------------------------------------------------------|
|--------------------------------------------------------|
|-------------------------------------2/4----------------|
|--------------------------------------------------------|
|--------------------------------------------------------|
|--------------------------------------------------------|
  The sweetest feeling I got from you the things I said to* you were
true
						*play open B string

Prechorus, with ending:                     harmonics
|-----------------------------------------------------|
|-----------------------------------------------------|
|----------------------------------------------/5\----|
|-----0---4------0---4------0---4/7-7--5--4----\5/----|
|-0h2---2------2---2------2---2-----0--------5--------|
|-----------------------------------------3--------0--|

Chorus:
  I could have lied I'm such a fool, my eyes could never never keep
their cool
  Showed her and I told her how she struck me but I'm fucked up now..
|-7---7-7-7---7-10---10-10---10-10-10-10---10-10-10--8----8----8----|
|-8---8-8-8---8-12---12-12---12-12-12-10---10-10-10--8----8----8----|
|-9---9-9-9---9-12---12-12---12-12-12-11---11-11-11--9----9----9----|
|-9---9-9-9---9-12---12-12---12-12-12-12---12-12-12--10---10---10---|
|-7-----------------------------------------------------------------|
|-0-----------------------------------------------------------------| (Fig. 2) x2

Solo:
|-------------------------------------------------------------------|
|-----------------------------------------7--7--7-7--7---7--7---7---|
|---------------2--4^(6)-(6)r4---------7---------------9------9-----|
|------0---/4-------------------5--5-9------------------------------|
|-2-----------------------------------------------------------------|
|-------------------------------------------------------------------|

|--------------------------------------------------7---------7-----------------|
|-9^10-8--7------------------------7------7------7---7-10^12---10---7-10-10p7--|
|------------7--7--9-7-9-7--7-9^11---9^11---9^11-------------------------------|
|------------------------------------------------------------------------------|
|------------------------------------------------------------------------------|
|------------------------------------------------------------------------------|

|----------------------------------------------------------------|
|-7h8p7---7--------------8-7-787---------7-----------------------|
|-------9---7~-------------------7-----7---7---------------------|
|-------------9-7-9--9-9-----------9---------9-9--9-7-9----------|
|-------------------------------------------------------9--10----|
|----------------------------------------------------------------|

|------------------10-12^14---15^17-15-14------------------|
|------------10-12------------------------15---------------|
|-----7-9/11---------------------------------14------------|
|-7-9-------------------------------------------14\12-12---|
|----------------------------------------------------------|
|----------------------------------------------------------|

|-----------------------------------------|
|---------7-------------------------------|
|-7-9-7-9-9^11r9--------------------------|
|-----------------7-7--7-9-5--4/5\4\2p0---|
|-----------------------------------------|
|-----------------------------------------|

Verse 3:
  But now she gone, yes she gone away, a soulful song there would not
stay
Fig. 1 x2
  'Cos see she hides 'cos she is scared but I don't care I won't be
spared
|----------------------------------------------------|
|------------------------3p2----------------2h3p2----|
|----------------------------------------------------|
|-----0---4------0---4-------4--7--5--4--------------|
|-0h2---2------2---2---2----------------5------------|
|-----------------------------------------3----------|

Fig. 1

Chorus

Repeat chorus with outro solo:
|-12------------------------------------------------------------------|
|-12----12-----------15-15-15-----------------------------------------|
|-14^16----14^16r14--12-------14~-14-12-14-12-14^16---14^16---14--12--|
|---------------------------------------------------------------------|
|---------------------------------------------------------------------|
|---------------------------------------------------------------------|

|-----------------------------------------------------------------------|
|-----------------------------------------------------------------------|
|-12-14-12-14-12----------12--------------------12-14^15-~14p12-14^16---|
|----------------14---------1412-14-12-14---/14-------------------------|
|-----------------------------------------------------------------------|
|-----------------------------------------------------------------------|

|----------------------------------------------------------------|
|-15-12-15-12---12-----------------------------------------------|
|------------------14-12-14^16-14^16-r14----12-14-12-12^14r12----|
|----------------------------------------------------------------|
|----------------------------------------------------------------|
|----------------------------------------------------------------|

|----------------------------------------------------------------|
|----------------------------------------------------------------|
|-11-12-11-11^12r11-----\4-7-4-4--------------7------------------|
|-------------------------------------5-7-7^9--(9)r7-9-7---------|
|-----------------------------------7--------------------7^9r7---|
|----------------------------------------------------------------|

|----------------------------|
|----------------------12----|
|----------------------12----|
|-2---2--/14--14--14---14----|
|----------------------------|
|----------------------------|·
Guitar Tabs FROM THE TOP 60 ARTISTS
1.  AC/DC Guitar Tabs
2.  AEROSMITH Guitar Tabs
3.  ALANIS MORISSETTE Guitar Tabs
4.  BEATLES Guitar Tabs
5.  BLINK 182 Guitar Tabs
6.  BOB DYLAN Guitar Tabs
7.  BOB MARLEY Guitar Tabs
8.  BUSH Guitar Tabs
9.  COLDPLAY Guitar Tabs
10.  DAVE MATTHEWS Guitar Tabs
11.  ERIC CLAPTON Guitar Tabs
12.  GRATEFUL Dead Guitar Tabs
13.  GREEN DAY Guitar Tabs
14.  IRON MAIDEN Guitar Tabs
15.  JACK JOHNSON Guitar Tabs
16.  JIMI HENDRIX Guitar Tabs
17.  JOHN MAYER Guitar Tabs
18.  JOHNNY CASH Guitar Tabs
19.  LED ZEPPELIN Guitar Tabs
20.  LIMP BIZKIT Guitar Tabs
21.  METALLICA Guitar Tabs
22.  NEIL YOUNG Guitar Tabs
23.  NIRVANA Guitar Tabs
24.  PEARL JAM Guitar Tabs
25.  PINK FLOYD Guitar Tabs
26.  RADIOHEAD Guitar Tabs
27  RED HOT CHILI PEPPERS Guitar Tabs
28  ROLLING STONES Guitar Tabs
29  STONE TEMPLE PILOTS Guitar Tabs
30  U2 Guitar Tabs
31.  VAN HALEN Guitar Tabs
32.  WEEZER Guitar Tabs