Guitar Resources


I Could Have Lied (By RED HOT CHILI PEPPERS)
 
Date: Sun, 19 Nov 1995 17:53:52 -0400
From: svautour@nbnet.nb.ca (serge vautour)
Subject: tab:i could have lied by red hot chili peppers

                      i could have lied
                              by
                     red hot chili peppers


i put the original posting below but this is what i think the riffs sound like
h=hammer on 
p=pull off    
>=slide
Riff #1

||----------------------------------------------------||    
||----------------------------------------------------||
||----------------------------------------------------||
||------------4---------4--------4>7--5--4------------||
||-------2h5--------2h5------2h5------------5---------||
||--3--5---------3---------3--------------------------||

riff #2

||---------------------------2h3p2--------------------||
||----------------------------------------------------||
||----------------------------------------------------||
||-------------4---------4----------4>7--5--4---------||
||--------2h5--------2h5-----------------------5------||
||--3--5----------3-----------------------------------||

i though the notes where G D C C but i might be wrong, i`ll have to try the
ones below but i though i was dead on with the riffs.

i just started learning scales and it sounds like if its played in this
scale paterne which i think translates to g scales?


||----|-*-|-*-|---|-*-|-----------------------------------------
||----|---|-*-|---|-*-|---------------------------------------
||----|-*-|---|-*-|-*-|----------------------------------------
||----|-*-|---|-*-|-*-|----------------------------------------
||----|-*-|-*-|---|-*-|------------------------------------------
||----|---|-*-|---|-*-|------------------------------------------
      1   2   3   4   5
 
so i just fool around in this scale patern (following the pattern down) and
you can play with the solo. it sounds about right? any comments, this is my
first posting!




                           I Could Have Lied
                               by Red Hot Chili Peppers

Ok, here are the riffs that are repeated all over the song. You'll have to
listen to the record for
the timing of tabs and chords.

RIFF #1

||----------------------------------------------------||  2/5 means slide from
||----------------------------------------------------||  2nd to 5th fret. Same
||-------------2-----------2-----------2/5--3/2-------||  thing for 3/5.
||----0--3--0-----0--3--0-----0--3--0------------3----||
||-3-------------------------------------3----1-------||
||--------------------------------------------------1-||

RIFF #2

||-------------------------------0h1p0-----------------||    h= hammer on
||-----------------------------------------------------||    p= pull off
||-------------2-----------2------------2/5--3/2-------||
||----0--3--0-----0--3--0-----0-------------------3----||
||-3--------------------------------------3----1-------||
||---------------------------------------------------1-||

INTRO:
riff #1 (x2)

There must be something in the way I feel that she don't want me to feel (#1)
riff #1
The stare she bares cut me, I don't care you see so what if I bleed (#2)
riff #1

D                         C (8th fret)
I could never change just what I feel
   G (3rd fret)              F
My face will never show what is not real

riff #2, riff #1

A mountain never seems to have the need to speak a look that shares so many
seek (#2)
riff #1
The sweetest feeling I got from you the things I said to you were true (#1)
riff #1

D                         C (8th fret)
I could never change just what I feel
   G (3rd fret)              F
My face will never show what is not real

riff #2

CHORUS:

D                     C (8th fret)
I could have lied I'm such a fool
   G (3rd fret)                 F
My eyes could never never never keep their cool
D                C (8th fret)
Showed her and I told her how
    G (3rd fret)      F
She struck me but I'm fucked up now

riff #2, riff #1

But now she's gone yes she's gone away a soulful song that would not stay (#2)
riff #1
You see she hides 'cause she is scared but I don't care I won't be spared (#1)
riff #2

(repeat chorus part x 2)

TABBED by: Luigi Anzivino (anzo@kermit.dsnet.it). Mail me! My mail box is
crying.
Guitar Tabs FROM THE TOP 60 ARTISTS
1.  AC/DC Guitar Tabs
2.  AEROSMITH Guitar Tabs
3.  ALANIS MORISSETTE Guitar Tabs
4.  BEATLES Guitar Tabs
5.  BLINK 182 Guitar Tabs
6.  BOB DYLAN Guitar Tabs
7.  BOB MARLEY Guitar Tabs
8.  BUSH Guitar Tabs
9.  COLDPLAY Guitar Tabs
10.  DAVE MATTHEWS Guitar Tabs
11.  ERIC CLAPTON Guitar Tabs
12.  GRATEFUL Dead Guitar Tabs
13.  GREEN DAY Guitar Tabs
14.  IRON MAIDEN Guitar Tabs
15.  JACK JOHNSON Guitar Tabs
16.  JIMI HENDRIX Guitar Tabs
17.  JOHN MAYER Guitar Tabs
18.  JOHNNY CASH Guitar Tabs
19.  LED ZEPPELIN Guitar Tabs
20.  LIMP BIZKIT Guitar Tabs
21.  METALLICA Guitar Tabs
22.  NEIL YOUNG Guitar Tabs
23.  NIRVANA Guitar Tabs
24.  PEARL JAM Guitar Tabs
25.  PINK FLOYD Guitar Tabs
26.  RADIOHEAD Guitar Tabs
27  RED HOT CHILI PEPPERS Guitar Tabs
28  ROLLING STONES Guitar Tabs
29  STONE TEMPLE PILOTS Guitar Tabs
30  U2 Guitar Tabs
31.  VAN HALEN Guitar Tabs
32.  WEEZER Guitar Tabs