Guitar Resources


My Lovely Man (By RED HOT CHILI PEPPERS)
 
From: Lor <sibylvane@adriacom.it>

-my lovely man- by the red hot chili peppers

 i've put here just the notes, and not their lenght, so you have to listen to the song to get the right time



-----------------------|------------------------|--------------------|------------------------|
-----------------------|------------------------|--------------------|------------------------|
-----------------------|-------------7----------|--------------------|------------------------|
-----------------------|--7--5--7/9-----9/7--5--|--------------------|------------------------|
-----7--5--7--5--7--5--|------------------------|--7--5--7--5--7--5--|-------------5----------|
-----------------------|------------------------|--------------------|--5--3--5/7-----7/5--3--|
                                                                                   i used to  

(verse)
-----------------------|------------------------|--------------------|------------------------|
-----------------------|------------------------|--------------------|------------------------|
-----------------------|-------------7----------|--------------------|------------------------|
-----------------------|--7--5--7/9-----9/7--5--|--------------------|------------------------|
-----7--5--7--5--7--5--|------------------------|--7--5--7--5--7--5--|-------------5----------|
-----------------------|------------------------|--------------------|--5--3--5/7-----7/5--3--|
shout across the room to you              and you come dancing like a fool       ow!          


-----------------------|----------------10------------|-----------------------|------------------------|
-----------------------|--10--8--10/12------12/10--8--|-----------------------|------------------------|
-----------------------|------------------------------|--9--9--7--9--7--9--7--|-------------7----------|
-----------------------|------------------------------|-----------------------|--7--5--7/9-----9/7--5--|
-----7--5--7--5--7--5--|------------------------------|-----------------------|------------------------|
-----------------------|------------------------------|-----------------------|------------------------|
shuffle step you funky mother               hey!       come to me all warm as covers


-----------------------------|--------------------------|
-----------------------------|--------------------------|
-----------------------------|--------------------------|
-----------------------------|--6--4--6--4--6--4--6--4--|
-----7--5--7--5--7--5--7--5--|--------------------------|
-----------------------------|--------------------------|


rest with me my lovely brother
for you there is no other
memory so sad and sweet
i'll see you soon, save me a seat

Am7/G
oh well, i'm cryin'

Bm7            Em
now, my lovely man

Am7
oh yes i'm cryin'

Bm7             Em13
now, and no one can

Am11
will ever fill the

Bm11                 Em13
the hole you left my man

Am11
i'll see you later

Bm11               Em13
my lovely man if i can


in my room i'm all alone
waiting for you to get home
listen to roberta flack but
i know you won't come back

just in case you never knew
i miss you slim. i love you too.
see my heart is black and blue-ue-ue
when i die i will find you.
Guitar Tabs FROM THE TOP 60 ARTISTS
1.  AC/DC Guitar Tabs
2.  AEROSMITH Guitar Tabs
3.  ALANIS MORISSETTE Guitar Tabs
4.  BEATLES Guitar Tabs
5.  BLINK 182 Guitar Tabs
6.  BOB DYLAN Guitar Tabs
7.  BOB MARLEY Guitar Tabs
8.  BUSH Guitar Tabs
9.  COLDPLAY Guitar Tabs
10.  DAVE MATTHEWS Guitar Tabs
11.  ERIC CLAPTON Guitar Tabs
12.  GRATEFUL Dead Guitar Tabs
13.  GREEN DAY Guitar Tabs
14.  IRON MAIDEN Guitar Tabs
15.  JACK JOHNSON Guitar Tabs
16.  JIMI HENDRIX Guitar Tabs
17.  JOHN MAYER Guitar Tabs
18.  JOHNNY CASH Guitar Tabs
19.  LED ZEPPELIN Guitar Tabs
20.  LIMP BIZKIT Guitar Tabs
21.  METALLICA Guitar Tabs
22.  NEIL YOUNG Guitar Tabs
23.  NIRVANA Guitar Tabs
24.  PEARL JAM Guitar Tabs
25.  PINK FLOYD Guitar Tabs
26.  RADIOHEAD Guitar Tabs
27  RED HOT CHILI PEPPERS Guitar Tabs
28  ROLLING STONES Guitar Tabs
29  STONE TEMPLE PILOTS Guitar Tabs
30  U2 Guitar Tabs
31.  VAN HALEN Guitar Tabs
32.  WEEZER Guitar Tabs