Guitar Resources


Scar Tissue (3) (By RED HOT CHILI PEPPERS)
 
Subject: r/red_hot_chili_peppers/scar_tissue.tab

Original Transcription From: "Alex Holmes" <team_karakal@excite.com>
Original Transcription Date: Mon, 18 Oct 1999 09:20:20 CDT
Secondary Transcription From: "Jacob B." <JDB129@aol.com>
Secondary Transcription Date: ???
Tertiary Transcription From: "Frank Giroux" <theGreenDragon@hotmail.com>
Tertiary Transcription Date: Sun, 27 Oct 2002 13:31:47 CDT

Author/Artist: Red Hot Chili Peppers
Title: Scar Tissue
Album: Californication


These might have originally sounded good on acoustic but it sounds like this 
on my electric.
Credits to Chuck C. (whoever the hell he is) Who gave me the chords for the 
chorus. I know
everything else is right and it's been fixed from it's second transcription 
to
be played all down by the 10th and 8th frets. There's a second guitar but 
it's hard to hear
and i don't have to skill to tab it and besides you can play just as well 
without it.

So here it is, in full effect, my edited (hopefully no mistakes) version of 
Scar Tissue.


-----------------------------------------------------------------------
---10---10---10----10--------------------------------------------------
-----------------------9-9-/-10-10----10----10----10/9-----------------
-----------------------------------------------------------------------
-8----8----8----8------------------------------------------------------
-----------------------8-8-/-10----10----10----10-------8--------------

-----------------------------------------------------------------------
---10---10---10----10--8-----------------------------------------------
--------------------------9-/-10--12p10-12p10--------------------------
-----------------------------------------------------------------------
-8----8----8----8------7-----------------------------------------------
--------------------------8-/-10---------------------------------------

-----------------------------------------------------------------------
---10---10---10----10--------------------------------------------------
-----------------------9-9-/-10-10----10----10----10/9-----------------
-----------------------------------------------------------------------
-8----8----8----8------------------------------------------------------
-----------------------8-8-/-10----10----10----10-------8--------------


------------------10---------------------------------------------------
---10---10---10-------8-8-/-10-10----10-8------------------------------
------------------------------------------10-9-------------------------
-----------------------------------------------------------------------
-8----8----8----8-----7-7-/--8----8------------------------------------
-----------------------------------------------------------------------

-------------1-1-1-1-1-1-----------------------------------------------
-------------3-3-3-3-3-3-----------------------------------------------
-2-2-2-2--5--2-2-2-2-2-2--(5)------------------------------------------
-3-3-3-3--5---------------(5)------------------------------------------
-3-3-3-3--3---------------(3)------------------------------------------
-1-1-1-1---------------------------------------------------------------

-------------1-1-1-1-1-1-----------------------------------------------
-------------3-3-3-3-3-3-----------------------------------------------
-2-2-2-2--5--2-2-2-2-2-2-----------------------------------------------
-3-3-3-3--5------------------------------------------------------------
-3-3-3-3--3------------------------------------------------------------
-1-1-1-1---------------------------------------------------------------

-----------------------------------------------------------------------
---10---10---10---10---------------------------------------------------
----------------------9-9-/-10-10----10----10----10/9------------------
-----------------------------------------------------------------------
-8----8----8----8------------------------------------------------------
----------------------8-8-/-10----10----10----10-------8---------------

-------------------10--8-----------------13-12-10----------------------
---10---10---10-----------8-8-/-10-10-------------13-------------------
-----------------------------------------------------------------------
-----------------------------------------------------------------------
-8----8----8----8---------7-7-/--8----8--------------------------------
-----------------------------------------------------------------------

-------------1-1-1-1-1-1-----------------------------------------------
-------------3-3-3-3-3-3-----------------------------------------------
-2-2-2-2--5--2-2-2-2-2-2--(5)------------------------------------------
-3-3-3-3--5---------------(5)------------------------------------------
-3-3-3-3--3---------------(3)------------------------------------------
-1-1-1-1---------------------------------------------------------------

-------------1-1-1-1-1-1-----------------------------------------------
-------------3-3-3-3-3-3-----------------------------------------------
-2-2-2-2--5--2-2-2-2-2-2-----------------------------------------------
-3-3-3-3--5------------------------------------------------------------
-3-3-3-3--3------------------------------------------------------------
-1-1-1-1---------------------------------------------------------------

-----------------------------------------------------------------------
--13/10--10/8--8/10--10/12-12/13---------------------------------------
-----------------------------------------------------------------------
-----------------------------------------------------------------------
-----------------------------------------------------------------------
-----------------------------------------------------------------------

-----------------------------------------------------------------------
---10---10---10----10--8-----------------------------------------------
--------------------------9-/-10--12p10-12p10--------------------------
-----------------------------------------------------------------------
-8----8----8----8------7-----------------------------------------------
--------------------------8-/-10---------------------------------------

------------------10---------------------------------------------------
---10---10---10-------8-8-/-10-10--12-13-12-10------------------------
-----------------------------------------------------------------------
-----------------------------------------------------------------------
-8----8----8----8-----7-7-/--8--8--------------------------------------
-----------------------------------------------------------------------

-------------1-1-1-1-1-1-----------------------------------------------
-------------3-3-3-3-3-3-----------------------------------------------
-2-2-2-2--5--2-2-2-2-2-2--(5)------------------------------------------
-3-3-3-3--5---------------(5)------------------------------------------
-3-3-3-3--3---------------(3)------------------------------------------
-1-1-1-1---------------------------------------------------------------

-------------1-1-1-1-1-1-----------------------------------------------
-------------3-3-3-3-3-3-----------------------------------------------
-2-2-2-2--5--2-2-2-2-2-2-----------------------------------------------
-3-3-3-3--5------------------------------------------------------------
-3-3-3-3--3------------------------------------------------------------
-1-1-1-1---------------------------------------------------------------

-----------------------------------------------------------------------
---10---10---10---10---------------------------------------------------
-----------------------9-9-/-10-10----10----10----10/9-----------------
-----------------------------------------------------------------------
-8----8----8----8------------------------------------------------------
-----------------------8-8-/-10----10----10----10-------8--------------

------------------10-----------------13-12-10-8------------------------
---10---10---10-------8-8-/-10-10--------------------------------------
-----------------------------------------------------------------------
-----------------------------------------------------------------------
-8----8----8----8-----7-7-/--8----8------------------------------------
-----------------------------------------------------------------------

-------------1-1-1-1-1-1-----------------------------------------------
-------------3-3-3-3-3-3-----------------------------------------------
-2-2-2-2--5--2-2-2-2-2-2--(5)------------------------------------------
-3-3-3-3--5---------------(5)------------------------------------------
-3-3-3-3--3---------------(3)------------------------------------------
-1-1-1-1---------------------------------------------------------------

-------------1-1-1-1-1-1-----------------------------------------------
-------------3-3-3-3-3-3-----------------------------------------------
-2-2-2-2--5--2-2-2-2-2-2--(5)------------------------------------------
-3-3-3-3--5---------------(5)------------------------------------------
-3-3-3-3--3---------------(3)------------------------------------------
-1-1-1-1---------------------------------------------------------------

-------------1-1-1-1-1-1-----------------------------------------------
-------------3-3-3-3-3-3-----------------------------------------------
-2-2-2-2--5--2-2-2-2-2-2--(5)------------------------------------------
-3-3-3-3--5---------------(5)------------------------------------------
-3-3-3-3--3---------------(3)------------------------------------------
-1-1-1-1---------------------------------------------------------------

-------------1-1-1-1-1-1-----------------------------------------------
-------------3-3-3-3-3-3-----------------------------------------------
-2-2-2-2--5--2-2-2-2-2-2-----------------------------------------------
-3-3-3-3--5------------------------------------------------------------
-3-3-3-3--3------------------------------------------------------------
-1-1-1-1---------------------------------------------------------------

----------------------------------------------------------10/12--13----
-15--15/13-13/10--10/8--13/10--15--17-13/10--13/8--13/10---------------
-----------------------------------------------------------------------
-----------------------------------------------------------------------
-----------------------------------------------------------------------
-----------------------------------------------------------------------

-----------------------------------------------------------------------
---10---10---10----10--------------------------------------------------
-----------------------9-9-/-10-10----10----10----10/9-----------------
-----------------------------------------------------------------------
-8----8----8----8------------------------------------------------------
-----------------------8-8-/-10----10----10----10-------8--------------

------------------10---------------------------------------------------
---10---10---10-------8-8-/-10-10----10-8------------------------------
------------------------------------------10-9-------------------------
-----------------------------------------------------------------------
-8----8----8----8-----7-7-/--8----8------------------------------------
-----------------------------------------------------------------------

-------------1-1-1-1-1-1-----------------------------------------------
-------------3-3-3-3-3-3-----------------------------------------------
-2-2-2-2--5--2-2-2-2-2-2--(5)------------------------------------------
-3-3-3-3--5---------------(5)------------------------------------------
-3-3-3-3--3---------------(3)------------------------------------------
-1-1-1-1---------------------------------------------------------------

-------------1-1-1-1-1-1-----------------------------------------------
-------------3-3-3-3-3-3-----------------------------------------------
-2-2-2-2--5--2-2-2-2-2-2--(5)------------------------------------------
-3-3-3-3--5---------------(5)------------------------------------------
-3-3-3-3--3---------------(3)------------------------------------------
-1-1-1-1---------------------------------------------------------------

-------------1-1-1-1-1-1-----------------------------------------------
-------------3-3-3-3-3-3-----------------------------------------------
-2-2-2-2--5--2-2-2-2-2-2--(5)------------------------------------------
-3-3-3-3--5---------------(5)------------------------------------------
-3-3-3-3--3---------------(3)------------------------------------------
-1-1-1-1---------------------------------------------------------------

-------------1-1-1-1-1-1-----------------------------------------------
-------------3-3-3-3-3-3-----------------------------------------------
-2-2-2-2--5--2-2-2-2-2-2-----------------------------------------------
-3-3-3-3--5------------------------------------------------------------
-3-3-3-3--3------------------------------------------------------------
-1-1-1-1---------------------------------------------------------------

-17---17/15---15---15/17/12---12/13/10---10----------------------------
----------------------------------------------13/15---15/13---13/15----
-----------------------------------------------------------------------
-----------------------------------------------------------------------
-----------------------------------------------------------------------
-----------------------------------------------------------------------

-----------------------------------------------------------------------
15/13/10---13/8---13/10----10-10-10-10-10-------------------10-10-10---
------------------------7~----------------7~--5/7/5--5/7---------------
----------------------------------------------------------7------------
-----------------------------------------------------------------------
-----------------------------------------------------------------------

---13/12-12------------------------------------------------------------
-------------13h15-13~/15-15/10---13/15/8--10-------------------------
-----------------------------------------------------------------------
-----------------------------------------------------------------------
-----------------------------------------------------------------------
-----------------------------------------------------------------------
Guitar Tabs FROM THE TOP 60 ARTISTS
1.  AC/DC Guitar Tabs
2.  AEROSMITH Guitar Tabs
3.  ALANIS MORISSETTE Guitar Tabs
4.  BEATLES Guitar Tabs
5.  BLINK 182 Guitar Tabs
6.  BOB DYLAN Guitar Tabs
7.  BOB MARLEY Guitar Tabs
8.  BUSH Guitar Tabs
9.  COLDPLAY Guitar Tabs
10.  DAVE MATTHEWS Guitar Tabs
11.  ERIC CLAPTON Guitar Tabs
12.  GRATEFUL Dead Guitar Tabs
13.  GREEN DAY Guitar Tabs
14.  IRON MAIDEN Guitar Tabs
15.  JACK JOHNSON Guitar Tabs
16.  JIMI HENDRIX Guitar Tabs
17.  JOHN MAYER Guitar Tabs
18.  JOHNNY CASH Guitar Tabs
19.  LED ZEPPELIN Guitar Tabs
20.  LIMP BIZKIT Guitar Tabs
21.  METALLICA Guitar Tabs
22.  NEIL YOUNG Guitar Tabs
23.  NIRVANA Guitar Tabs
24.  PEARL JAM Guitar Tabs
25.  PINK FLOYD Guitar Tabs
26.  RADIOHEAD Guitar Tabs
27  RED HOT CHILI PEPPERS Guitar Tabs
28  ROLLING STONES Guitar Tabs
29  STONE TEMPLE PILOTS Guitar Tabs
30  U2 Guitar Tabs
31.  VAN HALEN Guitar Tabs
32.  WEEZER Guitar Tabs