Guitar Resources


Scar Tissue (By RED HOT CHILI PEPPERS)
 
Red hot chilli peppers - Scar tissue

                       
I don't thimk it's right so for any suggestion e-mail me at=20
andrefusi@iol.it


    Intro                                                          =20
E------5--5--5--5--0--|--0--1--1--1--1--0--|--5--5--5--5--0--|------
B---------------------|--------------------|-----------------|------
G---------------------|--------------------|-----------------|------
D---------------------|--------------------|-----------------|------
A---8-----------------|--------------------|-----------------|------
E---------------------|--------------------|-----------------|------
                                                                   =20

                           =20
E---0--1--3--1--3--1-----|
B------------------------|
G------------------------|
D------------------------|
A------------------------|
E------------------------|

   1st strofa                             =20
E-----5--5--5--5--0--|--0--1--1--1--1--0--|--5--5--5--5--8--5--|
B--------------------|--------------------|--------------------|
G--------------------|--------------------|--------------------|
D--------------------|--------------------|--------------------|
A--8-----------------|--------------------|--------------------|
E--------------------|--------------------|--------------------|
                                                                         =
                                                                         =
                                                     =20
                          =20
E---3/5--5--5-----------|
B--------------8--6--5--|
G-----------------------|
D-----------------------|
A-----------------------|
E-----------------------|
                                                                   =20

   2nd strofa                              =20
E-----5--5--5--5--0--|--0--1--1--1--1--0--|--5--5--5--5--8--5--0--|
B--------------------|--------------------|-----------------------|
G--------------------|--------------------|-----------------------|
D--------------------|--------------------|-----------------------|
A--8-----------------|--------------------|-----------------------|
E--------------------|--------------------|-----------------------|

                                                                         =
                                                             =20
                              =20
E---3/5--5--13--12--10------|
B-----------------------13--|
G---------------------------|
D---------------------------|
A---------------------------|
E---------------------------|
=20
    Solo one with slide                   =20
E---8\5--|--5\3--3/5--5/7--7/8--8--|
B--------|-------------------------|
G--------|-------------------------|
D--------|-------------------------|
A--------|-------------------------|
E--------|-------------------------|
                                                                  =20

    3rd strofa                                                     =20
E------5--5--5--5--0--|--0--1--1--3--1--3--1--|
B---------------------|-----------------------|
G---------------------|-----------------------|
D---------------------|-----------------------|
A---8-----------------|-----------------------|
E---------------------|-----------------------|
                                                                   =20

                                                                   =20
E---5--5--5--5--8--5--|--3/5--5--7--8--7--5--|
B---------------------|----------------------|
G---------------------|----------------------|
D---------------------|----------------------|
A---------------------|----------------------|
E---------------------|----------------------|
                                                                   =20

    4th strofa                                                     =20
E------5--5--5--5--0--|--0--1--1--1--1--0--|
B---------------------|--------------------|
G---------------------|--------------------|
D---------------------|--------------------|
A---8-----------------|--------------------|
E---------------------|--------------------|
                                                                   =20

                                                 =20
E---5--5--5--5--8--5--|--3/5--5--13--12--10------|
B---------------------|----------------------13--|
G---------------------|--------------------------|
D---------------------|--------------------------|
A---------------------|--------------------------|
E---------------------|--------------------------|
                                                                   =20

    Solo two       =20
E-10--10--8-|-----------8-|------|-10--12-|-------------8-|----8-|
B-----------|-10--10\8----|--10--|--------|-13--10--10----|-8----|
G-----------|-------------|------|--------|---------------|------|
D-----------|-------------|------|--------|---------------|------|
A-----------|-------------|------|--------|---------------|------|
E-----------|-------------|------|--------|---------------|------|
                                                                         =
                                                           =20

                           =20
E-------10p12--12p13--13--|
B---10--------------------|
G-------------------------|
D-------------------------|
A-------------------------|
E-------------------------|
                                                              =20

   5th strofa                            =20
E-----5--5--5--5--0--|--0--1--1--1--1--0--|--5--5--5--5--8--5--|
B--------------------|--------------------|--------------------|
G--------------------|--------------------|--------------------|
D--------------------|--------------------|--------------------|
A--8-----------------|--------------------|--------------------|
E--------------------|--------------------|--------------------|
                                                                         =
                                                           =20
                          =20
E---3/5--5--5-----------|
B--------------8--6--5--|
G-----------------------|
D-----------------------|
A-----------------------|
E-----------------------|
                                                                   =20
   Last solo                               =20
E--17--17\15--|--15--15/17--|--12--12/13--|--10--8--8--10--10--|
B-------------|-------------|-------------|--------------------|
G-------------|-------------|-------------|--------------------|
D-------------|-------------|-------------|--------------------|
A-------------|-------------|-------------|--------------------|
E-------------|-------------|-------------|--------------------|

E--8--8--10--10--10--8--|-------------|------------|------------|
B-----------------------|--10--10/13--|--8--10/13--|--10--------|
G-----------------------|-------------|------------|------9--7--|
D-----------------------|-------------|------------|------------|
A-----------------------|-------------|------------|------------|
E-----------------------|-------------|------------|------------|
                                                                  =20

E--------|--------------|----------|-----|------|--13--12--12--|
B-10--10-|-10--10-------|----------|-----|--10--|--------------|
G--------|---------9--7-|-9--------|-----|------|--------------|
D--------|--------------|----10/12-|--7--|------|--------------|
A--------|--------------|----------|-----|------|--------------|
E--------|--------------|----------|-----|------|--------------|
                                                               =20
                                                                         =
                                                                         =
                                                         =20
E-------10------|---------------|
B---13------10--|--10/13--8/10--|
G---------------|---------------|
D---------------|---------------|
A---------------|---------------|
E---------------|---------------|
                                                                   =20
For the chorus play F and D minor

E--1--|--1--|
B--1--|--3--|
G--2--|--2--|
D--3--|--0--|
A--3--|--x--|
E--1--|--x--|
Guitar Tabs FROM THE TOP 60 ARTISTS
1.  AC/DC Guitar Tabs
2.  AEROSMITH Guitar Tabs
3.  ALANIS MORISSETTE Guitar Tabs
4.  BEATLES Guitar Tabs
5.  BLINK 182 Guitar Tabs
6.  BOB DYLAN Guitar Tabs
7.  BOB MARLEY Guitar Tabs
8.  BUSH Guitar Tabs
9.  COLDPLAY Guitar Tabs
10.  DAVE MATTHEWS Guitar Tabs
11.  ERIC CLAPTON Guitar Tabs
12.  GRATEFUL Dead Guitar Tabs
13.  GREEN DAY Guitar Tabs
14.  IRON MAIDEN Guitar Tabs
15.  JACK JOHNSON Guitar Tabs
16.  JIMI HENDRIX Guitar Tabs
17.  JOHN MAYER Guitar Tabs
18.  JOHNNY CASH Guitar Tabs
19.  LED ZEPPELIN Guitar Tabs
20.  LIMP BIZKIT Guitar Tabs
21.  METALLICA Guitar Tabs
22.  NEIL YOUNG Guitar Tabs
23.  NIRVANA Guitar Tabs
24.  PEARL JAM Guitar Tabs
25.  PINK FLOYD Guitar Tabs
26.  RADIOHEAD Guitar Tabs
27  RED HOT CHILI PEPPERS Guitar Tabs
28  ROLLING STONES Guitar Tabs
29  STONE TEMPLE PILOTS Guitar Tabs
30  U2 Guitar Tabs
31.  VAN HALEN Guitar Tabs
32.  WEEZER Guitar Tabs