Guitar Resources


Tear (By RED HOT CHILI PEPPERS)
 
From: Kcman1000@aol.com
Date: Fri, 19 Jul 2002 14:18:09 EDT
Subject: r/red_hot_chili_peppers/tear.crd


Tear Chords
Artist: Red Hot Chili Peppers
Album: By the Way

Verse
   C       G       A
E------------------------
B------------------------
G----0~------0~------2~--
D----2~------0~------2~--
A--3---------------0-----
E----------3-------------
  =20

Chorus
(strum this progression)
    C   (?)   Am?  G?   F    Em?  F    G?
E-----------------------1---------1------
B---1----1----1----1----1----1----1----1-
G---0----0----0----0----2----0----2----0-
D---2----0----2----0----3----2----3----0-
A-3-3--2-2--0-0----2----3----2----3----2-
E----------------3-3--1-1--0-0--1-1--3-3-


After Chorus
 Am~   Am~

Play over guitar and horn solos

E----------------
B---1----1----1--
G---0----0----0--
D---2----0----2--
A-3-3--2-2--0-0--
E----------------

Interlude
 (Play many of each chord real fast)
   F    E
E--5----4---
B--6----5---
G--5----4---
D-----------
A-----------
E-----------
Guitar Tabs FROM THE TOP 60 ARTISTS
1.  AC/DC Guitar Tabs
2.  AEROSMITH Guitar Tabs
3.  ALANIS MORISSETTE Guitar Tabs
4.  BEATLES Guitar Tabs
5.  BLINK 182 Guitar Tabs
6.  BOB DYLAN Guitar Tabs
7.  BOB MARLEY Guitar Tabs
8.  BUSH Guitar Tabs
9.  COLDPLAY Guitar Tabs
10.  DAVE MATTHEWS Guitar Tabs
11.  ERIC CLAPTON Guitar Tabs
12.  GRATEFUL Dead Guitar Tabs
13.  GREEN DAY Guitar Tabs
14.  IRON MAIDEN Guitar Tabs
15.  JACK JOHNSON Guitar Tabs
16.  JIMI HENDRIX Guitar Tabs
17.  JOHN MAYER Guitar Tabs
18.  JOHNNY CASH Guitar Tabs
19.  LED ZEPPELIN Guitar Tabs
20.  LIMP BIZKIT Guitar Tabs
21.  METALLICA Guitar Tabs
22.  NEIL YOUNG Guitar Tabs
23.  NIRVANA Guitar Tabs
24.  PEARL JAM Guitar Tabs
25.  PINK FLOYD Guitar Tabs
26.  RADIOHEAD Guitar Tabs
27  RED HOT CHILI PEPPERS Guitar Tabs
28  ROLLING STONES Guitar Tabs
29  STONE TEMPLE PILOTS Guitar Tabs
30  U2 Guitar Tabs
31.  VAN HALEN Guitar Tabs
32.  WEEZER Guitar Tabs