Guitar Resources


The Zephyr Song (By RED HOT CHILI PEPPERS)
 
Date: Sat, 29 Jun 2002 16:31:40 -0700 (PDT)
From: David Lipham <guitar511@yahoo.com>
Subject: r/red_hot_chili_peppers/the_zephyr_song.tab

Title: The Zephyr Song
Artist: Red Hot Chili Peppers
David Lipham

The guitar in this song is compressed with a slight
bit of vibrato 
in the intro. 
     
Intro :
                              
e|----------------------------------------------
B|--------8~~~-----6~~~-----0~~~-----1~~~-------
G|------5--------4--------1--------2------------
D|----7--------5--------2--------3--------------
A|----------------------------------------------
E|----------------------------------------------

e|-----------------------------------0~~~-------
B|--------5~~~-----3~~~-----0~~~-----1~~~-------
G|------5--------4--------1--------2------------
D|----7--------5--------2--------3--------------
A|----------------------------------------------
E|----------------------------------------------

Verse :
     Can I get your...
e|-----------------------------------------------------------------------
B|-------5---8--6-5--------3---6-5-3-------0---3-1-0-------1--3//5--3-1-0
G|-----5-----------------4---------------1---------------2---------------
D|---7-----7-----------5------5--------2------2--------3------3//5-------
A|-----------------------------------------------------------------------
E|-----------------------------------------------------------------------

  Take a look its on display...
e|-------------5----------------------------------0--------------------
B|-------5---8---5---------3----6-5-3-------0---3---0------0-1----0-1--
G|-----5---5-------------4------4---------1---1---------2--------------
D|---7-----7-----------5------5---------2---------------3------3-------
A|---------------------------------------------------------------------
E|---------------------------------------------------------------------

  Could you meet your fortune teller...
e|-------------------------------------------------------------------------
B|-----5---8--6-5--------3---6-5-3-------0---3-1-0-------1--3//5--3-1-0h1p0
G|---5-----------------4---------------1---------------2-------------------
D|-7-----7-----------5------5--------2------2--------3---------------------
A|-------------------------------------------------------------------------
E|-------------------------------------------------------------------------

   ...its not too strong...							    
e|-------------5----------------------------------0----------------------
B|-------5---8---5---------3----6-5-3-------0---3---0------0-1----0-1~~~~~
G|-----5---5-------------4------4---------1---1---------2----------------
D|---7-----7-----------5------5---------2---------------3------3---------
A|-----------------------------------------------------------------------
E|-----------------------------------------------------------------------

Chorus :
	Fly away on my zephyr..
e|--------------------3-----------5--------------
B|---7--7--7----------3-----------5--------------
G|---7--6--7----------4-----------6--------------   (Repeat)
D|---7--7--7----------5-----------7--------------     
A|---5--5--5----------5-----------7--------------
E|--------------------3-----------5--------------

Back to verse :
   Fly .....  on .......     
e|-------------------------------------------------------------------------
B|-----5---8--6-5--------3---6-5-3-------0---3-1-0-------1--3//5--3-1-0h1~~
G|---5-----------------4---------------1---------------2-------------------
D|-7-----7-----------5------5--------2------2--------3---------------------
A|-------------------------------------------------------------------------
E|-------------------------------------------------------------------------

e|-------------------------------------------------------------------------
B|-----5---8--6-5--------3---6-5-3-------0---3-1-0-------1--3//5--3-1-3//5-
G|---5-----------------4---------------1---------------2-------------------
D|-7-----7-----------5------5--------2------2--------3---------------------
A|-------------------------------------------------------------------------
E|-------------------------------------------------------------------------

e|-------------5----------------------------------0----------------------
B|-------5---8---5---------3----6-5-3-------0---3---0------0-1----0-1~~~~~
G|-----5---5-------------4------4---------1---1---------2----------------
D|---7-----7-----------5------5---------2---------------3------3---------
A|-----------------------------------------------------------------------
E|-----------------------------------------------------------------------

Chorus :
     Fly away on my zephyr ...
e|--------------------3-----------5--------------
B|---7--7--7----------3-----------5--------------
G|---7--6--7----------4-----------6--------------   
(Repeat)
D|---7--7--7----------5-----------7--------------     
A|---5--5--5----------5-----------7--------------
E|--------------------3-----------5--------------

Bridge thing :
     In the water ...
    (strum)
e|------------------3-----5-----3-5--------
B|---7---7----------3-----5-----3-5--------
G|---7---7----------4-----6-----4-6--------    
D|---7---7----------5-----7-----5-7--------     
A|---5---5----------5-----7-----5-7--------
E|------------------3-----5-----3-5--------

Chorus :
     Fly away on my zephyr ...  place together...
e|--------------------3-----------5--------------
B|---7--7--7----------3-----------5--------------
G|---7--6--7----------4-----------6--------------   
D|---7--7--7----------5-----------7--------------     
A|---5--5--5----------5-----------7--------------
E|--------------------3-----------5--------------


Solo : played over chord progression    Am  G  D  A

e|-12--10--12-12---12--10-12----------------10--8--10-10--10-x-10--12--
B|--------------------------12b13b12--10-------------------------------
G|---------------------------------------------------------------------
D|---------------------------------------------------------------------
A|---------------------------------------------------------------------
E|---------------------------------------------------------------------

---------------------                    --------------------
-----12b13b12--10----                    ---12b13b12--10-----
---------------------  (Repeat 1st part) ----------------9----
---------------------       Second time : --------------------   
---------------------                    --------------------
---------------------                    --------------------
          
Yeah yeah yeah yeah.....          
    Strum all chords shown 
e|-----------------5----6--------------
B|----5----3------5----6--------------
G|----x----0------5----7--------------   
D|----7----5------7----8--------------     
A|----7----5------7----8--------------
E|-----------------5----6--------------


Play Chorus with the repeat, then the bridge thing,
then back to a
Chorus without a repeat.

Outro :  stum chords below
   forever.....
e|-------------------3------5--------------           --5--
B|---7----7----------3------5--------------           --7--
G|---7----7----------4------6--------------    (Repeat until the end)--6--
D|---7----7----------5------7--------------           --7--
A|---5----5----------5------7--------------           --5--
E|-------------------3------5--------------           -----


This is all of my own work.
Guitar Tabs FROM THE TOP 60 ARTISTS
1.  AC/DC Guitar Tabs
2.  AEROSMITH Guitar Tabs
3.  ALANIS MORISSETTE Guitar Tabs
4.  BEATLES Guitar Tabs
5.  BLINK 182 Guitar Tabs
6.  BOB DYLAN Guitar Tabs
7.  BOB MARLEY Guitar Tabs
8.  BUSH Guitar Tabs
9.  COLDPLAY Guitar Tabs
10.  DAVE MATTHEWS Guitar Tabs
11.  ERIC CLAPTON Guitar Tabs
12.  GRATEFUL Dead Guitar Tabs
13.  GREEN DAY Guitar Tabs
14.  IRON MAIDEN Guitar Tabs
15.  JACK JOHNSON Guitar Tabs
16.  JIMI HENDRIX Guitar Tabs
17.  JOHN MAYER Guitar Tabs
18.  JOHNNY CASH Guitar Tabs
19.  LED ZEPPELIN Guitar Tabs
20.  LIMP BIZKIT Guitar Tabs
21.  METALLICA Guitar Tabs
22.  NEIL YOUNG Guitar Tabs
23.  NIRVANA Guitar Tabs
24.  PEARL JAM Guitar Tabs
25.  PINK FLOYD Guitar Tabs
26.  RADIOHEAD Guitar Tabs
27  RED HOT CHILI PEPPERS Guitar Tabs
28  ROLLING STONES Guitar Tabs
29  STONE TEMPLE PILOTS Guitar Tabs
30  U2 Guitar Tabs
31.  VAN HALEN Guitar Tabs
32.  WEEZER Guitar Tabs