Guitar Resources


Under The Bridge (3) (By RED HOT CHILI PEPPERS)
 
original crd file From: gr1305@iutazoe.univ-lyon1.fr
Date: Thu, 11 Jan 96 09:34:35 -0800
From: Lukas Kamber <kamberl@ezinfo.vmsmail.ethz.ch>
intro From: TwaNSk8brd@aol.com
intro From: Leesquidtone@aol.com
intro From: GorgeousGav@hotmail.com
From: "John Graham" <gorgeousgav@hotmail.com>
Date: Sat, 08 Jun 2002 14:51:46 +0000
Subject: r/red_hot_chili_peppers/under_the_bridge.tab

Song: Under the Bridge (Intro)
Artist: Red Hot Chili Peppers
Album: Blood, Sugar, Sex, Magik

h- hammer on
p- pull off
/- slide up


	(CAPO ON 2nd FRET)

e:-------------------------------------------|
B:--1---------------1------------------------|
G:----------0-----------0--------------------|
D:------2-------2----------------------------|
A:--3-------------------------2---0----------|
E:------------------------------------3---2--|


e:-----------------------------------------|
B:--0--------------------------------------|
G:------------------1----------------------|
D:----------2-----------2---2---0----------|
A:------2-------2-------------------3---0--|
E:--0--------------------------------------|


e:----------------------------------------|
B:--1--------------------1h3p1------------|
G:----------------0--------------0--------|
D:--------2--------------------------2/4--|
A:--2/3-------3-------3--------------3/5--|
E:----------------------------------------|


e:-----------------------------------------|
B:-----------------------------------------|
G:------------------1----------------------|
D:----------2-----------2---2---0----------|
A:------2-------2-------------------3---0--|
E:--0--------------------------------------|


e:-----------------------------------------------|
B:--1---------------------1----------------------|
G:----------------0-----------0------------------|
D:--------2-----------2--------------------------|
A:--2/3-------3-------------------2---0----------|
E:----------------------------------------3---2--|


e:-----------------------------------------|
B:--0--------------------------------------|
G:------------------1----------------------|
D:----------2-----------2---2---0----------|
A:------2-------2-------------------3---0--|
E:--0--------------------------------------|


e:---------------------------------------------|
B:--1---------------------1h3p1----------------|
G:----------------0---------------0------------|
D:--------2-----------2---------------2/4---4--|
A:--2/3-------3-----------------------3/5---5--|
E:---------------------------------------------|


e:-----------------------------------------|
B:-----------------------------------------|
G:------------------1-----------1----------|
D:----------2-----------2-----------2------|
A:------2-------2-----------------------2--|
E:--0-----------------------0--------------|




                           hp
E|-----------------------------------------5-5-7-5---------------
B|--9-9-7-77---------5-555--9-9-7-77------5-------5--------------
D|--9-9-8-88------99-6-666--9-9-8-88------6--------6-------------
G|--9---9-99-9/11-99-7-777--9---9-99-9/11-7----------------------
A|--7--------9/11-----------7--------9/11------------------------
E|---------------------------------------------------------------

E|----------------111111------9 9 9-------------------------------
B|--10---7-777----121212------101010------------------------------
D|--11---7-777----111111--11--111111------------------------------
G|--11---7-777------------11--------------------------------------
A|--9----9-999----------------------------------------------------
E|----------------------------------------------------------------




   Part I

   E   B   C#m          G#m A       E   B  C#m A
e:---------------9--9------------------------------|
B:---------------9--9------------------------------|
G:-13--8---------9--9---4---6-------13--8--9---6---|
D:-14--9--10/11---------6---7-------14--9--11--7---|
A:-14--9--10/11---------6---7-------14--9--11--7---|
E:-12--7---8/9----------4---5-------12--7--9---5---|




                     Emaj7
e:-repeat-Part-I,----7--------|
B:-put-play-just-----9--------|
G:-C#m,-without------8--------|
D:-slide-and-upper---9--------|
A:-strings-----------7--------|
E:-------------------7--------|




  Part II           H P                              H P
e:----12-12-----7----------------------------------5-7-5-------------|
B:----12-12-----7----------------------------------------5-----------|
G:13--13-13--8--8-8-9-8---8-------9-----9------------------------13--|
D:14---------9----------9---10/11-11-11-11---6--7----------------14--|
A:14---------9-------------------------------6--7----------------14--|
E:12---------7-------------------------------4--5----------------12--|




                H P
e:12-12-----7-------------------------------5--------------12-12----7|
B:12-12-----7---------------------------------5------------12-12----7|
G:13-13--8--8-8-9-8---8-------9-----9---6-------6------13--13-13--8-8|
D:-------9----------9---10/11-11-11-11--7--------------14---------9--|
A:-------9------------------------------7--------------14---------9--|
E:-------7------------------------------5--------------12---------7--|




     H P                             H P
e:---------------------------------5-7-5------------12-12----7-------|
B:---------------------------------------5----------12-12----7-------|
G:-8-9-8---8-------9-----9----------------------13--13-13--8-8-----8-|
D:-------9---10/11-11-11-11--6--7---------------14---------9----9----|
A:---------------------------6--7---------------14---------9---------|
E:---------------------------4--5---------------12---------7---------|





e:-----9-9---5--5------7--|
B:-----9-9---5-----5---9--|
G:-9---9-9---6---------8--|
D:-11--------7---------9--|
A:-11--------7---------7--|
E:-9---------5---------7--|




  Part III
e:---9----------9---------------------------7-7-7-7-7----9----9--9---|
B:---10---------10--------------------------7-7-7-7-7----10---10-10--|
G:---11---------11------13------------------8-8-8-8-8----11---11-11--|
D:---11---------11------14-------14---------9-9-9-9-9----11---11-11--|
A:----------------------14-------14----------------------------------|
E:----------------------12-------12----------------------------------|





e:--X--X--X--X-------repeat-this-3-times,-------|
B:--X--X--X--X-------but-without-the-shuffeled--|
G:--X--X--X--X-------(X-stuff)-part-for-the-----|
D:--X--X--X--X-------last-time------------------|
A:----------------------------------------------|
E:----------------------------------------------|




            H P                                  H P
e:--0--7---------------------------------------5-7-5------------12--1|
B:--0--7--7-9-7-----7----------------------------------5--------12--1|
G:--1--8---------8-----------9-------9---4--6---------------13--13--1|
D:--2--9---------------9/11--11--11--11--6--7---------------14-------|
A:--2--9---------------------------------6--7---------------14-------|
E:--0--7---------------------------------4--5---------------12-------|




             H P
e:2-----7------------------------------------5-----------------------|
B:2-----7---------------------------------------5--------------------|
G:3--8--8--8-9-8-----8--------9-------9---6--------6-----------------|
D:---9------------9-----9/11--11--11--11--7---------------14---------|
A:---9------------------------------------7-------------------14-----|
E:---7------------------------------------5-----------12----------7--|




       H P
e:----------------------------------------5-------------12--12-------|
B:-------------------------------------------5----------12--12-------|
G:8--8-9-8-----8--------9-------9---------------6---13--13--13-----8-|
D:----------9-----9/11--11--11--11--6--7------------14---------------|
A:----------------------------------6--7------------14----------9----|
E:----------------------------------4--5------------12----------7----|




        H                                                      H P
e:----7-9-7---------------------5-------------12--12-----------------|
B:----7---7-----------------------5-----------12--12------7----------|
G:------------9---9---9-----6-------6-----13--13--13------8--8-9-8---|
D:-9----------11--11--11----7---------7---14-----------9--9--------9-|
A:------------11--11--11----7-------------14-----------9-------------|
E:------------9---9---9-----5-------------12-----------7-------------|




                                H P
e:----------------------------5-7-5----------------------------------|
B:-----------------------------------5-----------------7-------------|
G:8--------9-------9-----------------------------------8-------8-----|
D:---9/11--11--11--11--6--7---------------------14--9--9----9-----11-|
A:---------------------6--7--------------13/14--14--9-------------11-|
E:---------------------4--5--------------11/13------7-------------9--|




                                         PART IV
e:-------------5----7-|---------------|--0--5----------0--0--|
B:---------------5--9-|-play-Part-III-|--5--5--3-3--3--0--1--|
G:------------------8-|---------------|--6--5--4-4--4--2--2--|
D:-11--11---7-------9-|---------------|--7--5--5-5--5--3--3--|
A:-11--11---7-------7-|---------------|----------------------|
E:-9---9----5---------|---------------|----------------------|





e:--play-chords--F-F-F-F-E-E-E-E-G-G-G-G------|
B:--------------------------------------------|
G:--I-don't-know-how-many-times,-but-it's-----|
D:--easy-to-hear,-and-anyway,-it's-the-bass---|
A:--line--------------------------------------|
E:--------------------------------------------|




    Part V                      P
e:--0--------------0-0--0--0------------------0--------------0--0--0-|
B:--5--5--8--5--5--3-3--3--1-------1----------5--5--8--5--5--3--3--3-|
G:--6--5--5--5--5--4-4--4--2--0-2-----2-0-----6--5--5--5--5--4--4--4-|
D:--7--5--5--5--5--5-5--5--3------------------7--5--5--5--5--5--5--5-|
A:-------------------------------------------------------------------|
E:-------------------------------------------------------------------|




        P
e:-0--------------|--------------------------|
B:-1------1-------|--play-Part-V-another-----|
G:-2--0-2---2-0-2-|--3-times-----------------|
D:-3--------------|--------------------------|
A:----------------|--------------------------|
E:----------------|--------------------------|




     Outro
e:-0--0-0---------------------0--0--0-0------------------------0--0--|
B:-5--5-5---5--5--X--X--5--3--0--5--5-5--5--5--8--5-5--3--3----0--1--|
G:-6--6-6---5--5--X--X--5--4--2--6--6-6--5--5--5--5-5--4----4--2--2--|
D:-7--7-7---5--5--X--X--5--5--3--7--7-7--5--5--5--5-5--5-------3--3--|
A:-------------------------------------------------------------------|
E:-------------------------------------------------------------------|




    H P                                                             H
e:--------0--0-0-------------------------0--0-------0--0-0-----------|
B:1-3-1---5--5-5--5--5--8--5-5--3--3-----0--1--1----5--5-5--5--5-----|
G:--------6--6-6--5--5--5--5-5--4----4---2--2--2-2--6--6-6--5--5--5-7|
D:--------7--7-7--5--5--5--5-5--5--------3--3----3--7--7-7--5--5-----|
A:-------------------------------------------------------------------|
E:-------------------------------------------------------------------|




   P
e:---------------0--0---|
B:-------3--3----0--1--2|
G:-5-----4----4--2--2--2|
D:---5---5-------3--3--2|
A:----------------------|
E:----------------------|

Copyright (c) 2001 by OLGA, Inc.
Guitar Tabs FROM THE TOP 60 ARTISTS
1.  AC/DC Guitar Tabs
2.  AEROSMITH Guitar Tabs
3.  ALANIS MORISSETTE Guitar Tabs
4.  BEATLES Guitar Tabs
5.  BLINK 182 Guitar Tabs
6.  BOB DYLAN Guitar Tabs
7.  BOB MARLEY Guitar Tabs
8.  BUSH Guitar Tabs
9.  COLDPLAY Guitar Tabs
10.  DAVE MATTHEWS Guitar Tabs
11.  ERIC CLAPTON Guitar Tabs
12.  GRATEFUL Dead Guitar Tabs
13.  GREEN DAY Guitar Tabs
14.  IRON MAIDEN Guitar Tabs
15.  JACK JOHNSON Guitar Tabs
16.  JIMI HENDRIX Guitar Tabs
17.  JOHN MAYER Guitar Tabs
18.  JOHNNY CASH Guitar Tabs
19.  LED ZEPPELIN Guitar Tabs
20.  LIMP BIZKIT Guitar Tabs
21.  METALLICA Guitar Tabs
22.  NEIL YOUNG Guitar Tabs
23.  NIRVANA Guitar Tabs
24.  PEARL JAM Guitar Tabs
25.  PINK FLOYD Guitar Tabs
26.  RADIOHEAD Guitar Tabs
27  RED HOT CHILI PEPPERS Guitar Tabs
28  ROLLING STONES Guitar Tabs
29  STONE TEMPLE PILOTS Guitar Tabs
30  U2 Guitar Tabs
31.  VAN HALEN Guitar Tabs
32.  WEEZER Guitar Tabs