Guitar Resources


Under The Bridge (5) (By RED HOT CHILI PEPPERS)
 
#----------------------------------PLEASE NOTE--------------------------------#
#This file is the author's own work and represents their interpretation of the#
#song. You may only use this file for private study, scholarship, or research.#
#-----------------------------------------------------------------------------#
#-- File created with Instab - http://www.pconline.com/~smcarey/instab.html --#
#-----------------------------------------------------------------------------#

Author/Artist: Red Hot Chili Peppers
Title: Under the Bridge(w/ live)
Transcribed by: Saverain
Email: saverain@hotmail.com

This is the complete version from the CD
If this is too much for you I have the way they 
play it live at the bottom of the tab.
Use Thumb on top string throughout the song.
v strum down
^ strum up
h hamer on   / slide up
r release      \ slide down
m mute      s strum down slowly
Play with CD
Long Live RHCP


-|----------------------------------------------------------------------------
-|-3----------3--------------2-------------------------3------------3h5r3-----
-|-------2-------2----------------------3----------------------2----------2---
-|----4-----4----------------------4-------4---4-2-0-------4------------------
-|-5-----------------4-2-0------4-----4--------------2-4h5---5----5-----------
-|-------------------------3-2------------------------------------------------
   v  ^  v  v ^  ^   v ^ v ^ v  ^  v  v ^  ^   v ^ v ^ v   v ^ v  v v     ^   

------------------------------------------------------------------------------
---------------------------------3------------3--------------2----------------
------------------3----------------------2-------2----------------------3-----
-4/6---------4-------4---4-2-0-------4------4----------------------4-------2--
-5/7-7\---4-----4--------------2-4h5---5-------------4-2-0------4-----x-------
--------2--------------------------------------------------3-2----------------
 v   v  v ^  v  v ^  ^   v ^ v ^ v   v ^ v  v ^  ^   v ^ v ^ v  ^  v  v ^  ^  

--------------------------------------------------------------------|---------
-----------3------------3h5r3---------------------------------------|---------
-------------------2-----------2--------------------3-------3-------|---------
---4-2-0-------4------------------4/6-6--------4-------4------4-----|---------
---------2-4h5---5----5-----------5/7-------4-----4------4------4/7-|---------
-----------------------------------------2--------------------------|---------
   v ^ v ^ v   v ^ v  v v      ^  v   v  v  ^  v  v ^  ^ ^  v ^ ^             

-------------|----------------------------------------------------------------
-------------|-9-----------------------9--4-------9-------7--------9-----5----
-------------|-9----x--8-------x-------x--4--6----9----x--8--------9-----6----
-------------|-9----x--9-------x-9--------6--7----9----x--9--------11----7----
-------------|-7-------x---------9/-11----x--x----7-------x--------x-----x----
-------------|---------7---------7/-9-----4--5------------7--------9-----5----
               v    v  ^       v v  v  ^m vm v   mv    v  ^        v   m v    

------------------------------------------------------------------------------
-------9-------7---------9------4---5------9-------7-----------9-----5--------
-------9----x--8-------x-9------4---6----x-9----x--8-----------9-----6-----x--
-------9----x--9-------x-11-----6---7----x-9----x--9-----------11----7-----x--
-------7-------x---------x------x---x------7-------x-----------x-----x--------
---------------7---------9------4---5--------------7-----------9-----5--------
       v    v  ^       v v      ^   v    v v    v  ^           v    mv     v  

-----------------------------|------------------------------------------------
-9-------------------------\-|------------------------------------------------
-8-------------------------\-|------------------------------------------------
-9-------------------------\-|------------------------------------------------
-7-------------------------\-|------------------------------------------------
-----------------------------|------------------------------------------------
 v                                                                            

------|-----------------------------------------------5h7r5-------------------
------|------9--7---7-----------------------9--4----5-------5-------9-------7-
------|------9--8---8--8-8h9r8---8------9-9-9--4----6---------------9-------8-
------|-9-------9------9-------9-9-9/11---1111-6----7----------9-------9------
------|-7-------x------x-------x-x-x------x-x--x----x----------7-------x------
------|---------7------7---------7-7/9----9-9--4----5------------------7------
 verse1>v    ^m v   ^  ^ v     ^ v v    v ^ v  ^  m v v     ^        m        

--------------------------------5--------|---|--------------------------------
------------------------9----------5-----|---|------9-------7----7------------
---8-8h9r8---8------9-9-9--6----------6--|---|------9----------8-8------------
---9-------9-9-9/11---1111-7-------------|---|-9-------9-------------9/11--11-
---x-------x-x-x------x-x--x-------------|---|-7-------x-----------x-x-----x--
---7---------7-7/9----9-9--5-------------|---|---------7-----------7-7/9---9--
                           ^    ^  v  ^1 1/2timesthenm      ^  v ^ ^ v     v  

---------5----------------------|-------|-------------------------------------
-9----------5-----9-------------|-------|--------10--9--9----9--16-16-16-16---
-9--6----------x--8-------------|-------|--------11--9--9----9--16-16-16-16---
-11-7-------------9-------------|-------|--------11--9--9----9--16-16-16-16---
----x-------------7-------------|-------|--------9---7--7----7--14-14-14-14---
----5---------------------------|-------|------------0--0----0----------------
 ^m ^    ^  v  ^  v              chorus> I don't ever^  v    vm v  ^  v  ^ m  

------9---9--x-x-|--------------------------------------9---9--x-x-|--------|-
-10---10--10-x-x-|-x-x-10---9-9----9--16-16-16-16--10---10--10-x-x-|--------|-
-11---11--11-x-x-|-x-x-11---9-9----9--16-16-16-16--11---11--11-x-x-|--------|-
-11---11--11-x-x-|-x-x-11---9-9----9--16-16-16-16--11---11--11-x-x-|--3x----|-
-9----9---9--x-x-|-x-x-9----7-7----7--14-14-14-14--10---9---9--x-x-|--------|-
-----------------|-------------------------------------------------|--------|-
  v   ^   v  v ^>>>v ^ ^  m v v    vm v  ^  v  ^ m v    ^   v  v ^<<<part 2   

-----------|-----------------------------------------------5h7r5--------------
-----------|------9------7--7-7-------7--------------------------5-------9----
-----------|------9------8--8-8h9r8---9------9-9-9--4----6---------------9----
-----------|-9------9----9--9-------9---9/11---1111-6----7----------9------x--
-----------|-7------x-------------------x------x-x--x----x----------7------x--
-----------|--------7-------------------7/9----9-9--4----5--------------------
     verse 2>      mv    ^  ^ v     ^ v v    v ^ v  ^  m v          v    ^mv  

------------------------------------5-----------------------------------------
----7-----------------------9--5-------5--------------------------------------
----8--8-8h9r8---8------9-9-9--6----------6-------9------8--8-8h9r8-8---------
-9-----9-------9-9-9/11---1111-7------------------9-------------------9/11-11-
-x-----x-------x-x-x------x-x--x-------------5/7--7-x-----------------x----x--
-7-----7---------7-7/9----9-9--5--------------------7-----------------7/11-9--
 v                                           v    ^mv    ^  ^ v     ^         

--------------5------------------------5/7-5----------------5-----------------
--------------5-5---5-------9-----7----------------------------5-5---------9--
------4----6------6-6-------9--------8----------------9--6---------6-------9--
-1111-6----7-----------9----------------------9/11111111-7------------9-------
-x-x--x----x-----------7------x---------------x---x-x-x--x------------7-------
-9-9--4----5------------------7---------------7/9-9-9-9--5--------------------
 ^ v  ^    v  ^ v ^ vm       m    ^  v ^   ^      v ^ v  ^  ^  v ^ vm      m  

----------------------------------------5h7r5---------------------------------
------7-----------------------9---------------5-------------------------------
------8--8-8h9r8---8------9-9-9--4----6---------------9-x-x------8----------9-
-9-------9-------9-9-9/11---1111-6----7----------9----9-x-x-------------------
-x-------x-------x-x-x------x-x--x----x----------7----7-x-x-x--------x--------
-7-------7---------7-7/9----9-9--4----4---------------------7--------7/9-9----
                                     m           v    ^mv ^ v    ^            

-------5------------------|----------|----------------------------------------
----------5-----9---------|----------|----------------------------------------
--6----------x--8---------|----------|----------------------------------------
--7-------------9---------|----------|----------------------------------------
----------------7---------|----------|----------------------------------------
--------------------------|----------|----------------------------------------
  ^    ^  v  ^  v           chorus                                            

--------------------------------------------|-0-0-0----0-----0--x--0----------
--------------------------------------------|-5-5-5----5-----3--x--1--0-0h1---
--------------------------------------------|-----6----5-----4--x--2--2-2-----
--------------------------------------------|-----7----------5--x--3----------
--------------------------------------------|---------------------------------
--------------------------------------------|---------------------------------
 >>>>>>>>>>>>>>>>>>>>>>>>>>>>>>>>>> >>yeh yeh v ^ v    v     v  ^  ^  ^ v     

-0-----0------0------0--0-0--0--------------0-----0-----0--x--0--------0------
-1-1---5------5------3--3-3--1--------1-----5-----5-----3--x--1--0-0h1-1-1----
-----2-6------5------4--4-4--2--2-0h2---2---6-----5-----4--x--2--2-2-------2--
-------7-------------5--5-5--3------------x-7-----------5--x--3---------------
------------------------------------------------------------------------------
------------------------------------------------------------------------------
 ^ v ^ v      v      v  ^ v  ^  ^ v   ^ v ^ v     v     v  ^  ^  ^ v   ^ v ^  

---|-12-12-12-12-12-12-12-12-12-12-12-12-12-12-12-12-10-10-10-10-10-10-10-10--
-x-|-10-10-10-10-10-10-10-10-10-10-10-10-10-10-10-10-9--9--9--9--9--9--9--9---
-x-|-10-10-10-10-10-10-10-10-10-10-10-10-10-10-10-10-9--9--9--9--9--9--9--9---
---|-10-10-10-10-10-10-10-10-10-10-10-10-10-10-10-10-9--9--9--9--9--9--9--9---
---|-8--8--8--8--8--8--8--8--8--8--8--8--8--8--8--8--7--7--7--7--7--7--7--7---
---|--------------------------------------------------------------------------
 v   v  ^ continue rythm                                                      

-------14-14-14-14-14-14-|-0----0--0-0--0--0----0--0--|-0----0----0--0--0-----
-12-12-12-12-12-12-12-12-|-5----5--5-3--3--0----1--1--|-5----5----3--3--0-----
-12-12-12-12-12-12-12-12-|-6--6-5----4--4--2----2--2--|-6----5----4--4--2-----
-12-12-12-12-12-12-12-12-|-7--7-7----5--5--3----3--3--|-7----7----5--5--3-----
-10-10-10-10-10-10-10-10-|----------------------------|-----------------------
-------------------------|----------------------------|-----------------------
              outro part1>>v  ^ v  ^ v  ^  ^    ^  v >>>v    v    v  ^  ^     

-0--0--|------------------------------------------|-0--0-0-0--0----0--0--x-x--
-1--1--|------------------------------------------|-5--5-5-5--5----5--5--x-x--
-2--2--|------------------------------------------|-6--6-6-6--5----5--5--x-x--
-3--3--|------------------------------------------|---------------------------
-------|-10-12-15-12-10-12-----10-12-15-12-10-12/-|---------------------------
-------|------------------------------------------|---------------------------
 ^  v<<<<play w/ outro part1           outro part 2>v  v ^ v  ^    ^  v  v ^  

-0----0-x-----------0------0----0----0----0---x-3p0-0-0----0-0----------------
-3----3-x----0-0h1--1-1----5----5-5--5----5-5-x-------3----3-3--0--1-1-1h3r1--
-4----4-x-2--2-2--------2--6----6-6--5----5-5---------4----4-4--2--2-2--------
----------3-----------------------7---------7-------------------3--3----------
------------------------------------------------------------------------------
------------------------------------------------------------------------------
 v    ^ v ^  ^ v    ^ v ^  v    ^ vm v    ^ vm^ v   ^ v    ^ vm ^  ^ v v      

----0----0----0---0-----------0----0----0--0-----0------0----0----0---0-------
----5----5----5---5----8p5----3----3----0--1-----1------5----5-5--5---5-------
-2--6----6-6--5---5-5------5--4----4-4--2----2-----2-2--6----6-6--5---5-5-----
-----------7--------7----------------5---------3-----3---------7--------7-----
------------------------------------------------------------------------------
------------------------------------------------------------------------------
 ^  v    ^ vm ^   ^ vm v   ^  v    ^ vm ^  ^ v ^ v ^ v  v    ^ vm ^   ^ vm    

-------------------------------------|----------------------------------------
-5--------0----3----0---1---------2--|----------------------------------------
-5h7r5---------4----2-------------2--|----------------------------------------
-------7---------5--------3-------2--|----------------------------------------
----------------------------------0--|----------------------------------------
----------------------------------0--|----------------------------------------
 v     ^  v    ^ v  ^   ^ ^       s    THAT'S THE WAY IT IS PLAYED ON THE CD  

--------------------------------------------\|--------------------------------
--------------------------------------------/|*9----x--7----7---------------9-
--------------------------------------------\|-9----x--8----8--8h9p8--------9-
--------------------------------------------/|-9----x--9----9---------9--9/---
--------------------------------------------\|*7----x--x----x------------x----
--------------------------------------------/|---------7----7------------7/---
 AND THIS IS HOW THEY PLAY IT LIVE>>>>> >verse live v  T    ^  v      ^       

----------------5h7p5---------------------------------------------5---------|-
-----9--4-----5-------5--9----x--7-7-----------------9----9--5-------5-----*|-
-----9--4-----6----------9----x--8-8--8h9h8----------9----9--6----------6---|-
--11----6-----7----------9----x--9-9---------9--9/11---11----7--------------|-
--------x-----x----------7----x--x-x------------x------------x-------------*|-
--------4-----5------------------7-7------------7/9----------5--------------|-
      m ^  m  v v     ^                                      ^    ^  v        

-|------|-\----------------------------------\|-0----0--0----0--0--0--0--0-0--
-|--9---|-/----------------------------------/|*5----5--5----5--5--5--3--3-3--
-|--8---|-\----------------------------------\|-6----6--5----5--5--5--4--4-4--
-|--9---|-/----------------------------------/|-7----7--7----7--7--7--5--5-5--
-|--7---|-\----------------------------------\|*7----7--7----7--7--7--5--5-5--
-|------|-/----------------------------------/|-5----5--5----5--5--5--3--3-3--
    v        here is the outro played live> >>> outrov  ^    ^  v  ^  v  v ^  

--0----0--0------|-12-----10---14----|-----\----------------------------------
--0----1--1-/5-5*|-10-----9----12----|-----/----------------------------------
--2----2--2-/5-5-|-10-16x-9-8x-12-8x-|-----\----------------------------------
--3----3--3-/7-7-|-10-----9----12----|-----/----------------------------------
--3----3--3-----*|-8------7----10----|-----\----------------------------------
--1----1--1------|-------------------|-----/----------------------------------
  ^    ^  v    ^   play first part again                                      

Guitar Tabs FROM THE TOP 60 ARTISTS
1.  AC/DC Guitar Tabs
2.  AEROSMITH Guitar Tabs
3.  ALANIS MORISSETTE Guitar Tabs
4.  BEATLES Guitar Tabs
5.  BLINK 182 Guitar Tabs
6.  BOB DYLAN Guitar Tabs
7.  BOB MARLEY Guitar Tabs
8.  BUSH Guitar Tabs
9.  COLDPLAY Guitar Tabs
10.  DAVE MATTHEWS Guitar Tabs
11.  ERIC CLAPTON Guitar Tabs
12.  GRATEFUL Dead Guitar Tabs
13.  GREEN DAY Guitar Tabs
14.  IRON MAIDEN Guitar Tabs
15.  JACK JOHNSON Guitar Tabs
16.  JIMI HENDRIX Guitar Tabs
17.  JOHN MAYER Guitar Tabs
18.  JOHNNY CASH Guitar Tabs
19.  LED ZEPPELIN Guitar Tabs
20.  LIMP BIZKIT Guitar Tabs
21.  METALLICA Guitar Tabs
22.  NEIL YOUNG Guitar Tabs
23.  NIRVANA Guitar Tabs
24.  PEARL JAM Guitar Tabs
25.  PINK FLOYD Guitar Tabs
26.  RADIOHEAD Guitar Tabs
27  RED HOT CHILI PEPPERS Guitar Tabs
28  ROLLING STONES Guitar Tabs
29  STONE TEMPLE PILOTS Guitar Tabs
30  U2 Guitar Tabs
31.  VAN HALEN Guitar Tabs
32.  WEEZER Guitar Tabs