Guitar Resources


Aint Talkin Bout Love (By VAN HALEN)
 
Ain't talkin' 'bout love                             
Van Halen




Guitar 1
                                                                   
E||------------------|------------------|--------------0--1--------|
B||------------------|------------------|--------1-----------1-----|
G||------------------|------------------|-----------2-----------2--|
D||------------------|------------------|-----2--------------------|
A||------------------|------------------|--0-----------------------|
E||------------------|------------------|--------------------------|


                                                                             
--3---------------------|--------------0--1--------|--3---------------------|
-----3------------------|--------1-----------1--1--|-----3------------------|
------------------------|-----------2-----------2--|------------------------|
------------------------|-----2--------------------|------------------------|
-----------3------2--3--|--0-----------------------|-----------3------2--3--|
--------3---------------|--------------------------|--------3---------------|


                                                                               
--------------0--1--------|--3---------------------|--------------0--1--------|
--------1-----------1-----|-----3------------------|--------1-----------1-----|
-----------2-----------2--|------------------------|-----------2-----------2--|
-----2--------------------|------------------------|-----2--------------------|
--0-----------------------|-----------3------2--3--|--0-----------------------|
--------------------------|--------3---------------|--------------------------|


                                                               
--3---------------------|------------------|------------------|
-----3------------------|------------------|------------------|
------------------------|------------------|------------------|
------------------------|------------------|------------------|
-----------3------2--3--|------------------|------------------|
--------3---------------|------------------|------------------|


                                                                            
------------------|------------------|------------------|------------------|
------------------|------------------|------------------|------------------|
------------------|------------------|------------------|------------------|
------------------|------------------|------------------|------------------|
------------------|------------------|------------------|------------------|
------------------|------------------|------------------|------------------|


                                                                            
------------------|------------------|------------------|------------------|
------------------|------------------|------------------|------------------|
------------------|------------------|------------------|------------------|
------------------|------------------|------------------|------------------|
------------------|------------------|------------------|------------------|
------------------|------------------|------------------|------------------|


                                                                            
------------------|------------------|------------------|------------------|
------------------|------------------|------------------|------------------|
------------------|------------------|------------------|------------------|
------------------|------------------|------------------|------------------|
------------------|------------------|------------------|------------------|
------------------|------------------|------------------|------------------|


                                                                            
------------------|------------------|------------------|------------------|
------------------|------------------|------------------|------------------|
------------------|------------------|------------------|------------------|
------------------|------------------|------------------|------------------|
------------------|------------------|------------------|------------------|
------------------|------------------|------------------|------------------|


                                                                            
------------------|------------------|------------------|------------------|
------------------|------------------|------------------|------------------|
------------------|------------------|------------------|------------------|
------------------|------------------|------------------|------------------|
------------------|------------------|------------------|------------------|
------------------|------------------|------------------|------------------|


                                                                            
------------------|------------------|------------------|------------------|
------------------|------------------|------------------|------------------|
------------------|------------------|------------------|------------------|
------------------|------------------|------------------|------------------|
------------------|------------------|------------------|------------------|
------------------|------------------|------------------|------------------|


                                                                            
------------------|------------------|------------------|------------------|
------------------|------------------|------------------|------------------|
------------------|------------------|------------------|------------------|
------------------|------------------|------------------|------------------|
------------------|------------------|------------------|------------------|
------------------|------------------|------------------|------------------|


                                                                            
------------------|------------------|------------------|------------------|
------------------|------------------|------------------|------------------|
------------------|------------------|------------------|------------------|
------------------|------------------|------------------|------------------|
------------------|------------------|------------------|------------------|
------------------|------------------|------------------|------------------|


                                                                
------------------|-------------------------|------------------|
------------------|----1--1/-3--3/-5--5/-8--|------------------|
------------------|-------------------------|------------------|
------------------|-------------------------|------------------|
------------------|-------------------------|------------------|
------------------|-------------------------|------------------|


                                                                   
------------------|-------------------------|---------------------|
------------------|--------------------0----|---------------------|
------------------|-----------2--------0----|--------------9--12--|
------------------|-----0--2-----------0----|---------------------|
------------------|--3-----------------x----|---------------------|
------------------|--------------0--0--3----|---------------------|


                                                                            
--0-------0---------------|---------------------|--0-----------------------|
--10------10----10--12----|---------------------|--10------12----13--12\---|
--------------------------|--------------9--12--|--------------------------|
--------------------------|---------------------|--------------------------|
--------------------------|---------------------|--------------------------|
--------------------------|---------------------|--------------------------|


                                                   
-------0---------------|--0-------0---------0-----|
----8------------------|--10------12----13--15----|
----------------9--12--|--------------------------|
-----------------------|--------------------------|
-----------------------|--------------------------|
-----------------------|--------------------------|


                                     
------------------------------------|
----13--15/-17--17/-20--17h20p17----|
---------------------------------20-|
------------------------------------|
------------------------------------|
------------------------------------|


                                                                        
---------------------------------------------------|-------------------|
--17h20p17----17h20p17----17h20p17----17-17--------|-------------------|
-----------20----------20----------19b-------19-17-|--0----------------|
---------------------------------------------------|-------------------|
---------------------------------------------------|-------------------|
---------------------------------------------------|-------------------|


                                                                            
------------------|------------------|------------------|------------------|
------------------|------------------|------------------|------------------|
------------------|------------------|------------------|------------------|
------------------|------------------|------------------|------------------|
------------------|------------------|------------------|------------------|
------------------|------------------|------------------|------------------|


                                                                            
------------------|------------------|------------------|------------------|
------------------|------------------|------------------|------------------|
------------------|------------------|------------------|------------------|
------------------|------------------|------------------|------------------|
------------------|------------------|------------------|------------------|
------------------|------------------|------------------|------------------|


                                                                            
------------------|------------------|------------------|------------------|
------------------|------------------|------------------|------------------|
------------------|------------------|------------------|------------------|
------------------|------------------|------------------|------------------|
------------------|------------------|------------------|------------------|
------------------|------------------|------------------|------------------|


                                                                            
------------------|------------------|------------------|------------------|
------------------|------------------|------------------|------------------|
------------------|------------------|------------------|------------------|
------------------|------------------|------------------|------------------|
------------------|------------------|------------------|------------------|
------------------|------------------|------------------|------------------|


                                                                            
------------------|------------------|------------------|------------------|
------------------|------------------|------------------|------------------|
------------------|------------------|------------------|------------------|
------------------|------------------|------------------|------------------|
------------------|------------------|------------------|------------------|
------------------|------------------|------------------|------------------|


                                                                            
------------------|------------------|------------------|------------------|
------------------|------------------|------------------|------------------|
------------------|------------------|------------------|------------------|
------------------|------------------|------------------|------------------|
------------------|------------------|------------------|------------------|
------------------|------------------|------------------|------------------|


                                                         
------------------|------------------|------------------|
------------------|------------------|------------------|
------------------|------------------|------------------|
------------------|------------------|------------------|
------------------|------------------|------------------|
------------------|------------------|------------------|


                                                                
-------------------------|------------------|------------------|
----1--1/-3--3/-5--5/-8--|------------------|------------------|
-------------------------|------------------|------------------|
-------------------------|------------------|------------------|
-------------------------|------------------|------------------|
-------------------------|------------------|------------------|


                                                                
-------------------------|------------------|------------------|
--------------------0----|------------------|------------------|
-----------2--------0----|------------------|------------------|
-----0--2-----------0----|------------------|------------------|
--3-----------------x----|------------------|------------------|
--------------0--0--3----|------------------|------------------|


                                                                            
------------------|------------------|------------------|------------------|
------------------|------------------|------------------|------------------|
------------------|------------------|------------------|------------------|
------------------|------------------|------------------|------------------|
------------------|------------------|------------------|------------------|
------------------|------------------|------------------|------------------|


                                                            
------------------|------------------|---------------------|
------------------|------------------|---------------------|
------------------|------------------|--------------9--12--|
------------------|------------------|---------------------|
------------------|------------------|---------------------|
------------------|------------------|---------------------|


                                                                            
--0-------0---------------|---------------------|--0-----------------------|
--10------10----10--12----|---------------------|--10------12----13--12\---|
--------------------------|--------------9--12--|--------------------------|
--------------------------|---------------------|--------------------------|
--------------------------|---------------------|--------------------------|
--------------------------|---------------------|--------------------------|


                                                                              
-------0---------------|--0-------0---------0-----|--------------------------|
----8------------------|--10------12----13--15----|----13--15--17--17--------|
----------------9--12--|--------------------------|--------------------------|
-----------------------|--------------------------|--------------------------|
-----------------------|--------------------------|--------------------------|
-----------------------|--------------------------|--------------------------|


                                                                               
--0-----------------|-------------------|------------------|------------------|
--------------------|-------------------|------------------|------------------|
---------------8----|--7----------------|------------------|------------------|
--------------------|-------------------|------------------|------------------|
--------------------|-------------------|------------------|------------------|
--------------------|-------------------|------------------|------------------|




Guitar2

                                                                               
E||------------------|------------------|------------------|------------------|
B||------------------|------------------|------------------|------------------|
G||------------------|------------------|------------------|------------------|
D||------------------|------------------|------------------|------------------|
A||------------------|------------------|------------------|------------------|
E||------------------|------------------|------------------|------------------|


                                                                            
------------------|------------------|------------------|------------------|
------------------|------------------|------------------|------------------|
------------------|------------------|------------------|------------------|
------------------|------------------|------------------|------------------|
------------------|------------------|------------------|------------------|
------------------|------------------|------------------|------------------|


                                                                
------------------|------------------|--5--------5-------------|
------------------|------------------|--5--------5--------0----|
------------------|------------------|--2--------2--------0----|
------------------|------------------|--2--------2--------0----|
------------------|------------------|--0--0--0--0--0-----x----|
------------------|------------------|-----------------0--3----|


                                                                           
----------------------|--5--------5-------------|-------------------------|
----------------------|--5--------5--------0----|----1--1/-3--3/-5--5/-8--|
----------------------|--2--------2--------0----|-------------------------|
----------------------|--2--------2--------0----|-------------------------|
---------3------2--3--|--0--0--0--0--0-----x----|-------------------------|
------0---------------|-----------------0--3----|-------------------------|


                                                                           
--5--------5-------------|----------------------|--5--------5-------------|
--5--------5--------0----|----------------------|--5--------5--------0----|
--2--------2--------0----|----------------------|--2--------2--------0----|
--2--------2--------0----|----------------------|--2--------2--------0----|
--0--0--0--0--0-----x----|---------3------2--3--|--0--0--0--0--0-----x----|
-----------------0--3----|------0---------------|-----------------0--3----|


                                                                       
---------------------|--------------1-----3----|----------------------|
---------------------|--------1-----------3----|----------------------|
----8b---9--9\-------|-----------2-----2-------|----------------------|
---------------------|-----2-------------------|----------------------|
---------------------|--0----------------------|---------3------2--3--|
---------------------|-------------------------|------3---------------|


                                                                           
--------------1-----3----|----------------------|--------------1-----3----|
--------1-----------3----|----------------------|--------1-----------3----|
-----------2-----2-------|----------------------|-----------2-----2-------|
-----2-------------------|----------------------|-----2-------------------|
--0----------------------|---------3------2--3--|--0----------------------|
-------------------------|------3---------------|-------------------------|


                                                                        
----------------------|--------------1-----3----|----------------------|
----------------------|--------1-----------3----|----------------------|
----------------------|-----------2-----2-------|----------------------|
----------------------|-----2-------------------|----------------------|
---------3------2--3--|--0----------------------|---------3------2--3--|
------3---------------|-------------------------|------3---------------|


                                                                           
--5--------5-------------|----------------------|--5--------5-------------|
--5--------5--------0----|----------------------|--5--------5--------0----|
--2--------2--------0----|----------------------|--2--------2--------0----|
--2--------2--------0----|----------------------|--2--------2--------0----|
--0--0--0--0--0-----x----|---------3------2--3--|--0--0--0--0--0-----x----|
-----------------0--3----|------0---------------|-----------------0--3----|


                                                                        
----------------------|--5--------5-------------|----------------------|
----------------------|--5--------5--------0----|----------------------|
----------------------|--2--------2--------0----|----------------------|
----------------------|--2--------2--------0----|----------------------|
---------3------2--3--|--0--0--0--0--0-----x----|---------3------2--3--|
------0---------------|-----------------0--3----|------0---------------|


                                                                           
--5--------5-------------|----------------------|--------------1-----3----|
--5--------5--------0----|----------------------|--------1-----------3----|
--2--------2--------0----|----------------------|-----------2-----2-------|
--2--------2--------0----|----------------------|-----2-------------------|
--0--0--0--0--0-----x----|---------3------2--3--|--0----------------------|
-----------------0--3----|------0---------------|-------------------------|


                                                                        
----------------------|--------------1-----3----|----------------------|
----------------------|--------1-----------3----|----------------------|
----------------------|-----------2-----2-------|----------------------|
----------------------|-----2-------------------|----------------------|
---------3------2--3--|--0----------------------|---------3------2--3--|
------3---------------|-------------------------|------3---------------|


                                                                           
--------------1-----3----|----------------------|--------------1-----3----|
--------1-----------3----|----------------------|--------1-----------3----|
-----------2-----2-------|----------------------|-----------2-----2-------|
-----2-------------------|----------------------|-----2-------------------|
--0----------------------|---------3------2--3--|--0----------------------|
-------------------------|------3---------------|-------------------------|


                                                                        
----------------------|--5--------5-------------|----------------------|
----------------------|--5--------5--------0----|----------------------|
----------------------|--2--------2--------0----|----------------------|
----------------------|--2--------2--------0----|----------------------|
---------3------2--3--|--0--0--0--0--0-----x----|---------3------2--3--|
------3---------------|-----------------0--3----|------0---------------|


                                                                           
--5--------5-------------|----------------------|--5--------5-------------|
--5--------5--------0----|----------------------|--5--------5--------0----|
--2--------2--------0----|----------------------|--2--------2--------0----|
--2--------2--------0----|----------------------|--2--------2--------0----|
--0--0--0--0--0-----x----|---------3------2--3--|--0--0--0--0--0-----x----|
-----------------0--3----|------0---------------|-----------------0--3----|


                                                                        
----------------------|--5--------5-------------|----------------------|
----------------------|--5--------5--------0----|----------------------|
----------------------|--2--------2--------0----|----------------------|
----------------------|--2--------2--------0----|----------------------|
---------3------2--3--|--0--0--0--0--0-----x----|---------3------2--3--|
------0---------------|-----------------0--3----|------0---------------|


                                                                            
--0-------0---------------|---------------------|--0-----------------------|
--10------10----10--12----|---------------------|--10------12----13--12\---|
--------------------------|--------------9--12--|--------------------------|
--------------------------|---------------------|--------------------------|
--------------------------|---------------------|--------------------------|
--------------------------|---------------------|--------------------------|


                                                   
-------0---------------|--0-------0---------0-----|
----8------------------|--10------12----13--15----|
----------------9--12--|--------------------------|
-----------------------|--------------------------|
-----------------------|--------------------------|
-----------------------|--------------------------|


                                     
------------------------------------|
----13--15/-17--17/-20--17h20p17----|
---------------------------------20-|
------------------------------------|
------------------------------------|
------------------------------------|


                                                                        
---------------------------------------------------|-------------------|
--17h20p17----17h20p17----17h20p17----17-17--------|-------------------|
-----------20----------20----------19b-------19-17-|--0----------------|
---------------------------------------------------|-------------------|
---------------------------------------------------|-------------------|
---------------------------------------------------|-------------------|


                                                                           
--5--------5-------------|----------------------|--5--------5-------------|
--5--------5--------0----|----------------------|--5--------5--------0----|
--2--------2--------0----|----------------------|--2--------2--------0----|
--2--------2--------0----|----------------------|--2--------2--------0----|
--0--0-----0--0-----x----|---------3------2--3--|--0--0--0--0--0-----x----|
--------5--------0--3----|------0---------------|-----------------0--3----|


                                                                        
----------------------|--5--------5-------------|----------------------|
----------------------|--5--------5--------0----|----------------------|
----------------------|--2--------2--------0----|----------------------|
----------------------|--2--------2--------0----|----------------------|
---------3------2--3--|--0--0--0--0--0-----x----|---------3------2--3--|
------0---------------|-----------------0--3----|------0---------------|


                                                                        
--5--------5-------------|------------------|--------------1-----3-----|
--5--------5--------0----|------------------|--------1--------1-----3--|
--2--------2--------0----|------------------|-----------2--------------|
--2--------2--------0----|------------------|-----2--------------------|
--0--0--0--0--0-----x----|------------------|--0-----------------------|
-----------------0--3----|------------------|--------------------------|


                                                                         
----------------------|--------------1-----3-----|----------------------|
----------------------|--------1--------1-----3--|----------------------|
--0-------------------|-----------2--------------|--0-------------------|
----------------------|-----2--------------------|----------------------|
---------3------2--3--|--0-----------------------|---------3------2--3--|
----------------------|--------------------------|----------------------|


                                                                             
--------------1-----3-----|----------------------|--------------1-----3-----|
--------1--------1-----3--|----------------------|--------1--------1-----3--|
-----------2--------------|--0-------------------|-----------2--------------|
-----2--------------------|----------------------|-----2--------------------|
--0-----------------------|---------3------2--3--|--0-----------------------|
--------------------------|----------------------|--------------------------|


                                                                        
-------------------------|-----------------------|---------------------|
-------------------------|--------------------5--|---------12----------|
--0----------------------|--2----2---------5-----|------7--------------|
-----0-------------------|--2----2------5--------|---------------------|
-----------3----3--2--3--|--0----0---------------|---------------------|
--------3----------------|-----------------------|---------------------|


                                                                        
-----------------------|-----------------------|-----------------------|
--------------5--------|---------7--12---------|--------------------5--|
--2----2---------5-----|--------------------0--|--2----2---------5-----|
--2----2------------5--|------7----------------|--2----2------5--------|
--0----0---------------|-----------------------|--0----0---------------|
-----------------------|-----------------------|-----------------------|


                                                                
--------------------|-----------------------|------------------|
------5-------------|--------------------5--|------------------|
-----------5--------|-----------------5-----|------------------|
--------------------|--7----7------5--------|------------------|
--------------------|--7----7---------------|------------------|
--------------------|--5----5---------------|------------------|


                                                                           
--5--------5-------------|----------------------|--5--------5-------------|
--5--------5--------0----|----------------------|--5--------5--------0----|
--2--------2--------0----|----------------------|--2--------2--------0----|
--2--------2--------0----|----------------------|--2--------2--------0----|
--0--0--0--0--0-----x----|---------3------2--3--|--0--0--0--0--0-----x----|
-----------------0--3----|------0---------------|-----------------0--3----|


                                                                        
----------------------|--5--------5-------------|----------------------|
----------------------|--5--------5--------0----|----------------------|
----------------------|--2--------2--------0----|----------------------|
----------------------|--2--------2--------0----|----------------------|
---------3------2--3--|--0--0--0--0--0-----x----|---------3------2--3--|
------0---------------|-----------------0--3----|------0---------------|


                                                                           
--5--------5-------------|----------------------|--5--------5-------------|
--5--------5--------0----|----------------------|--5--------5--------0----|
--2--------2--------0----|----------------------|--2--------2--------0----|
--2--------2--------0----|----------------------|--2--------2--------0----|
--0--0--0--0--0-----x----|---------3------2--3--|--0--0--0--0--0-----x----|
-----------------0--3----|------0---------------|-----------------0--3----|


                                                                                
----------------------|--5--------5-------------|----17--17--17--17--17--17\---|
----------------------|--5--------5--------0----|------------------------------|
----------------------|--2--------2--------0----|------------------------------|
----------------------|--2--------2--------0----|------------------------------|
---------3------2--3--|--0--0--0--0--0-----x----|------------------------------|
------0---------------|-----------------0--3----|------------------------------|


                                                                           
--5--------5-------------|----------------------|--5--------5-------------|
--5--------5--------0----|----------------------|--5--------5--------0----|
--2--------2--------0----|----------------------|--2--------2--------0----|
--2--------2--------0----|----------------------|--2--------2--------0----|
--0--0--0--0--0-----x----|---------3------2--3--|--0--0--0--0--0-----x----|
-----------------0--3----|------0---------------|-----------------0--3----|


                                                                            
--------------------------|--0-------0---------------|---------------------|
--------------------------|--10------10----10--12----|---------------------|
-------------------9--12--|--------------------------|--------------9--12--|
--------------------------|--------------------------|---------------------|
--------------------------|--------------------------|---------------------|
----3--3--3--3--3---------|--------------------------|---------------------|


                                                                              
--0-----------------------|-------0---------------|--0-------0---------0-----|
--10------12----13--12\---|----8------------------|--10------12----13--15----|
--------------------------|----------------9--12--|--------------------------|
--------------------------|-----------------------|--------------------------|
--------------------------|-----------------------|--------------------------|
--------------------------|-----------------------|--------------------------|


                                                                        
----------------------------------|--------------------------12\-------|
----13--15/-17--17/-20--17h20-17--|--17h20p17----17h20p17--------------|
----------------------------------|-----------20----------20-----------|
----------------------------------|------------------------------------|
----------------------------------|------------------------------------|
----------------------------------|------------------------------------|


                                                                     
-------------------|--5--------5-------------|----------------------|
-------------------|--5--------5--------0----|----------------------|
-------------------|--2--------2--------0----|----------------------|
-------------------|--2--------2--------0----|----------------------|
-------------------|--0--0--0--0--0-----x----|---------3------2--3--|
---0---------------|-----------------0--3----|------0---------------|


                                                                           
--5--------5-------------|----------------------|--5--------5-------------|
--5--------5--------0----|------5/---8/---10\---|--5--------5--------0----|
--2--------2--------0----|----------------------|--2--------2--------0----|
--2--------2--------0----|----------------------|--2--------2--------0----|
--0--0--0--0--0-----x----|----------------------|--0--0-----0--0-----x----|
-----------------0--3----|----------------------|--------5--------0--3----|


                                                                        
----------------------|--5--------5-------------|----------------------|
----------------------|--5--------5--------0----|----------------------|
----------------------|--2--------2--------0----|-------5----5----5----|
----------------------|--2--------2--------0----|-------5----5----5----|
---------3------2--3--|--0--0--0--0--0-----x----|-------3----3----3----|
------0---------------|-----------------0--3----|----0-----------------|


                                                                           
--5--------5-------------|----------------------|--5--------5-------------|
--5--------5--------0----|----------------------|--5--------5--------0----|
--2--------2--------0----|-------5----5----5----|--2--------2--------0----|
--2--------2--------0----|-------5----5----5----|--2--------2--------0----|
--0--0--0--0--0-----x----|-------3----3----3----|--0--0--0--0--0-----x----|
-----------------0--3----|----0-----------------|-----------------0--3----|


                                                                        
----------------------|--5--------5-------------|----------------------|
----------------------|--5--------5--------0----|----------------------|
-------5----5----5----|--2--------2--------0----|-------5----5----5----|
-------5----5----5----|--2--------2--------0----|-------5----5----5----|
-------3----3----3----|--0--0--0--0--0-----x----|-------3----3----3----|
----0-----------------|-----------------0--3----|----0-----------------|


                                                                        
--5--------5-------------|----------------------|--5-------------------|
--5--------5--------0----|----------------------|--5-------------------|
--2--------2--------0----|-------5----5----5----|--2-------4------5----|
--2--------2--------0----|-------5----5----5----|--2-------4/-----5----|
--0--0--0--0--0-----x----|-------3----3----3----|--0----0--2------3----|
-----------------0--3----|----0-----------------|----------------------|


                                                                 
----------------------|----------------------|------------------|
----------------------|----------------------|------------------|
----------------------|--2-------4\----------|------------------|
----------------------|--2-------4\-----2----|------------------|
----------------3--2--|--0----0--2\-----2----|------------------|
----------0--3--------|-----------------0----|------------------|


                                                                     
--5-------------------|----------------------|-------------------7--|
--5-------------------|----------------------|-------------------7--|
--2-------4------5----|----------------------|--2-------4--------7--|
--2-------4/-----5----|----------------------|--2-------4--------x--|
--0----0--2------3----|----------------3--2--|--0----0--2--------7--|
----------------------|----------0--3--------|----------------------|


                                         
-------------------|--7\---------------||
-------------------|--7\---------------||
-------------------|--7\---------------||
-------------------|--x----------------||
----------7--------|--7\---------------||
-------------------|-------------------||


Guitar Tabs FROM THE TOP 60 ARTISTS
1.  AC/DC Guitar Tabs
2.  AEROSMITH Guitar Tabs
3.  ALANIS MORISSETTE Guitar Tabs
4.  BEATLES Guitar Tabs
5.  BLINK 182 Guitar Tabs
6.  BOB DYLAN Guitar Tabs
7.  BOB MARLEY Guitar Tabs
8.  BUSH Guitar Tabs
9.  COLDPLAY Guitar Tabs
10.  DAVE MATTHEWS Guitar Tabs
11.  ERIC CLAPTON Guitar Tabs
12.  GRATEFUL Dead Guitar Tabs
13.  GREEN DAY Guitar Tabs
14.  IRON MAIDEN Guitar Tabs
15.  JACK JOHNSON Guitar Tabs
16.  JIMI HENDRIX Guitar Tabs
17.  JOHN MAYER Guitar Tabs
18.  JOHNNY CASH Guitar Tabs
19.  LED ZEPPELIN Guitar Tabs
20.  LIMP BIZKIT Guitar Tabs
21.  METALLICA Guitar Tabs
22.  NEIL YOUNG Guitar Tabs
23.  NIRVANA Guitar Tabs
24.  PEARL JAM Guitar Tabs
25.  PINK FLOYD Guitar Tabs
26.  RADIOHEAD Guitar Tabs
27  RED HOT CHILI PEPPERS Guitar Tabs
28  ROLLING STONES Guitar Tabs
29  STONE TEMPLE PILOTS Guitar Tabs
30  U2 Guitar Tabs
31.  VAN HALEN Guitar Tabs
32.  WEEZER Guitar Tabs