Guitar Resources


Dont Tell Me (By VAN HALEN)
 
From: COOLEZ@aol.com

				  

				  Van Halen
			Don't Tell Me What Love Can Do
				From the album
				   Balance
     Drop the E string to a D. 
     On Riff A as you pick, scrape the strings to get
     the scratchy effect.

  Riff A:    Pick scrape while playing notes. (Do not slide!)
E|------------------------------------------------------------|
B|------------------------------------------------------------|
G|------------------------------------------------------------|
D|------------------------------------------------------------|
A|------------------------------------------------------------|
D|-4-4-4-4-4-4-4-4-4-0-0-0-0-0-0-0-0-0-2-2|

     Play riff A for the first half of the verse, then go 
to riff B for the last half.

  Riff B                                     
|-2---2---2-2--2---2---2-2--|  Repeat this  |--0--|
|-2---2---2-2--3---3---3-3--|  a few times  |--0--|
|-2---2---2-2--2---2---2-2--|  then play an |--1--|
|-4---4---4-4--4---4---4-4--|  E before the |--2--|
|-4-4-4-4-4-4--4-4-4-4-4-4--|  chorus.      |--2--|
|---------------------------|               |--2--|

Chorus
|-2-2-2-2-2-2-2-2-2--0-0-0-0-0-0-0-0----|  Repeat this
|-3-3-3-3-3-3-3-3-3--2-2-2-2-2-2-2-2----|  for the rest
|-2-2-2-2-2-2-2-2-2--2-2-2-2-2-2-2-2----|  of the chorus.
|--------------------2-2-2-2-2-2-2-2----|
|---------------------------------------|
|---------------------------------------|


|-------------------------4-4-4-4-4-4-4-------------|
|-9-9-9-9-9-9-------------5-5-5-5-5-5-5-------------|
|-9-9-9-9-9-9-------------6-6-6-6-6-6-6---5---------|
|-9-9-9-9-9-9--7-7-7-7-7--6-6-6-6-6-6-6---5---------|
|-7-7-7-7-7-7--7-7-7-7-7--4-4-4-4-4-4-4---3---------|
|--------------5-5-5-5-5--4-4-4-4-4-4-4-------------|

     I have not figured out the first solo yet, but I almost
     have it.  So I will not write it.  I do know the first
     part of the second solo, but not all of it.

Solo 2:

|--3-------------------|   This is only the begining 
|-----2h3p2------------|   of the solo.  This repeats
|------------4--2--4B--|   four times before it becomes
|----------------------|   higher.
|----------------------|
|----------------------|

     Repeat the rest of the riffs with the verses. 
     This song is pretty easy to play.  It sounds
     good with the CD.

Questions, comments,

Coolez@aol.com
Guitar Tabs FROM THE TOP 60 ARTISTS
1.  AC/DC Guitar Tabs
2.  AEROSMITH Guitar Tabs
3.  ALANIS MORISSETTE Guitar Tabs
4.  BEATLES Guitar Tabs
5.  BLINK 182 Guitar Tabs
6.  BOB DYLAN Guitar Tabs
7.  BOB MARLEY Guitar Tabs
8.  BUSH Guitar Tabs
9.  COLDPLAY Guitar Tabs
10.  DAVE MATTHEWS Guitar Tabs
11.  ERIC CLAPTON Guitar Tabs
12.  GRATEFUL Dead Guitar Tabs
13.  GREEN DAY Guitar Tabs
14.  IRON MAIDEN Guitar Tabs
15.  JACK JOHNSON Guitar Tabs
16.  JIMI HENDRIX Guitar Tabs
17.  JOHN MAYER Guitar Tabs
18.  JOHNNY CASH Guitar Tabs
19.  LED ZEPPELIN Guitar Tabs
20.  LIMP BIZKIT Guitar Tabs
21.  METALLICA Guitar Tabs
22.  NEIL YOUNG Guitar Tabs
23.  NIRVANA Guitar Tabs
24.  PEARL JAM Guitar Tabs
25.  PINK FLOYD Guitar Tabs
26.  RADIOHEAD Guitar Tabs
27  RED HOT CHILI PEPPERS Guitar Tabs
28  ROLLING STONES Guitar Tabs
29  STONE TEMPLE PILOTS Guitar Tabs
30  U2 Guitar Tabs
31.  VAN HALEN Guitar Tabs
32.  WEEZER Guitar Tabs