Guitar Resources


Eruption (2) (By VAN HALEN)
 
song: eruption
band: Van halen
tabbed by: chase (srvfan85@hotmail.com)

tuned down half step
p=pull off H=hammer on ^=bend T=tap Ph=harmonics


this is the way i play it so if any of you have a problem, or play it a different way e-mail me

                                          
------------------------------------------------------------------------------------------
------------------------------------------------------------------------------------------
--------------/--8--------2-------------------------------5---7^---7p5--7^--------5-------
--------------/--x--------2------------------------5---7----------------------------------
--------------/--9--------0--------------7------------------------------------------------
---------------------10\------------------------------------------------------------------
                                          ^w. bar^ P.M-----]             ^w. bar^




                                                        [hold bend]      Ph
-5--------0-------0-------0-------0--------------5--------------------------------------------
--8p5p0----8p5p0---8p5p0---8p5p0---8p5p0-----5----8p5----5------------------------------------
--------8-------8-------8-------8----------7----------7^----7---7p5-----4---5--7---5--7p5p4---
---------------------------------------------------------------------6----------------------7-
----------------------------------------------------------------------------------------------
----------------------------------------------------------------------------------------------





-------------------------------------------------------------------------------------------
-------------------------------------------------------------------------------------------
--4H7p5p4-----4H7p5p4-----4H7p5p4-----4H7p5p4-------4--------------------------------------
-----------7-----------7-----------7-----------7-------7--6--5--4--------------------------
--------------------------------------------------------------------7--6--5--3-/-15--------
-------------------------------------------------------------------------------------------



   vvvvvvvvvvvvvvvvall w/ wammy barvvvvvvvvvvvvvvvvvvvvvvv

-------------------------------------------------------------------3---2--------------------
-------------------------------------------------------------------3---3---3-/-19-----------
---------------------------------------------------------------2---0---2--------------------
---------------------------------------------------------------2---0---0--------------------
-----------------------------12p0-------(0)--(0)--(0)--(0)-----0---x------------------------
----0----------(0)-------------------------------------------------3------------------------



                        hold bend 
                       v         v                                               w. bar
------17-----17-----17-----17--------------------17---20---21-----20^p17----------------17-----17
--20^----20^----20^----20^------20-20p18p0---20^--------------19---------19^-(19)----------20----
-------------------------------------------0-----------------------------------------------------
-------------------------------------------------------------------------------------------------
-------------------------------------------------------------------------------------------------
-------------------------------------------------------------------------------------------------




                                                                    w. bar------]
--20^-(20)p17-----17-----------------------------------------------------------------------
--------------20------20^-(20)p17----20^-(20)p17----20^-(20)p17-----20^-----(20)-\---------
----------------------------------19-------------19--------------19---------------/18------
-------------------------------------------------------------------------------------------
-------------------------------------------------------------------------------------------
-------------------------------------------------------------------------------------------



                                                                                  w. bar-]  
----------16-17-20-----------14h17h20p17h20p17p14h15p14-------------------------------------
-16h18h20----------14h17h20-----------------------------17p14----14---------------17-17-14--
---------------------------------------------------------------17--17^-(17)p14h17-----------
--------------------------------------------------------------------------------------------
--------------------------------------------------------------------------------------------
-------------------------------------------------------------------------------------------0



  w. bar- - - - - - - - - - - - - - - ]  
-----------------------------------------12---16---19---17---16---17--14--16----------------
--15^---------------------------------------------------------------------------------------
--------------------------------------------------------------------------------------------
--------------------------------------------------------------------------------------------
--------------------------------------------------------------------------------------------
--------------------------------------------------------------------------------------------





--12--14--10--12--9--10--7--9--5--7--3--5--1-----1h3p1p0------------------------------------
------------------------------------------------------------5p3p1p0-------------------------
--------------------------------------------------------------------5-2^--2\1---------------
--------------------------------------------------------------------------------------------
--------------------------------------------------------------------------------------------
------------------------------------------------------------------------------/20p0---------





--------------------------------------------------------------------------------------------
-----------------x-----------------------------------6p0-5-------8p0-7----------------------
-----------------x-----------------5p0---------5p0-3-------7p0-5----------------------------
-----------------x-----5h7-7-7-7-7-----7-7-7-7----------------------------------------------
-------------------/7-----------------------------------------------------------------------
------------0-------------------------------------------------------------------------------


this is where it starts to gets hard  v

-5h7p5h7p5h7p5h7p5h7p5------------------------------------------------------------------------
----------------------------------------------------------------5p0-4-------7p0-6-------------
----------------------------------------------------------5p0-4-------7p0-4-------------------
----------------------------------------5p0---------5p0---------------------------------------
----------------------------5h7-7-7-7-7-----7-7-7-7-----7-------------------------------------
-----------------------/7---------------------------------------------------------------------






--------------------------------------------------------------------------------------------
-4h6p4h6p4h6p4h6p4-------------------------------------6p0-5-------8p0-7--------------------
------------------------------------5p0----------5p0-3-------7p0-5--------------------------
------------------------5h7-7-7-7-7-----7-7-7-7---------------------------------------------
-------------------/7-----------------------------------------------------------------------
--------------------------------------------------------------------------------------------





                                                  T        T      T      T     T     T     T     T 
--------------------------------------------------9p2-------------------------------------------------
-5-h7p5h7p5h7-p5\3h5p3h5-p3\1h3p1h3p1p0h2p0h2p0h2-----2h5--9p2h5--9p2h5--9p2h5-9p2h5-9p2h5-9p2h5-9p2h5
------------------------------------------------------------------------------------------------------
------------------------------------------------------------------------------------------------------
------------------------------------------------------------------------------------------------------
------------------------------------------------------------------------------------------------------


  T      T      T      T      T      T      T      T      T      T      T      T      T      T      T      T
----------------------------------------------------------------------------------------------------------------
-10-2h5-10-2h5-10-2h5-10-2h5-10-2h5-10-2h5-10-2h5-10-2h5-10-4h7-10-4h7-10-4h7-10-4h7-10-4h7-10-4h7-10-4h7-10-4h7
----------------------------------------------------------------------------------------------------------------
----------------------------------------------------------------------------------------------------------------
----------------------------------------------------------------------------------------------------------------
----------------------------------------------------------------------------------------------------------------


  T      T      T      T      T      T      T      T      T      T      T      T      T      T      T      T
----------------------------------------------------------------------------------------------------------------
-12-5h9-12-5h9-12-5h9-12-5h9-12-5h9-12-5h9-12-5h9-12-5h9-13-5h8-13-5h8-13-5h8-13-5h8-13-5h8-13-5h8-15-5h8-15-5h8
----------------------------------------------------------------------------------------------------------------
----------------------------------------------------------------------------------------------------------------
----------------------------------------------------------------------------------------------------------------
----------------------------------------------------------------------------------------------------------------
----------------------------------------------------------------------------------------------------------------



  T       T       T       T       T       T       T       T       T       T       T       T       T       T       T       T    
--------------------------------------------------------------------------------------------------------------------------------
-15-7h10-15-7h10-15-7h10-15-7h10-15-7h10-15-7h10-17-7h10-17-7h10-17-9h12-17-9h12-17-9h12-17-9h12-17-9h12-17-9h12-17-9h12-17-9h12
--------------------------------------------------------------------------------------------------------------------------------
--------------------------------------------------------------------------------------------------------------------------------
--------------------------------------------------------------------------------------------------------------------------------
--------------------------------------------------------------------------------------------------------------------------------




  T       T       T       T         T        T        T        T        T        T        T       T
--------------------------------------------------------------------------------------------------------
-17-9h12-17-9h12-17-9h12-17-9h12---17-12h15-17-12h15-17-11h14-17-11h14-17-10h13-17-10h13-17-9h12-17-9h12
--------------------------------------------------------------------------------------------------------
--------------------------------------------------------------------------------------------------------
--------------------------------------------------------------------------------------------------------
--------------------------------------------------------------------------------------------------------



  T        T        T        T        T        T        T       T      T         T        T       T
---------------------------------------------------------------------------------------------------------
-17-12h15-17-12h15-17-11h14-17-11h14-17-10h13-17-10h13-17-9h12-17-9h12-15-10h13-15-10h13-15-9h12-15-9h12-
---------------------------------------------------------------------------------------------------------
---------------------------------------------------------------------------------------------------------
---------------------------------------------------------------------------------------------------------
---------------------------------------------------------------------------------------------------------



  T       T       T       T       T       T       T       T       T      T      T      T      T      T  
----------------------------------------------------------------------------------------------------------
-15-8h11-15-8h11-15-7h10-15-7h10-13-8h11-13-8h11-13-7h10-13-7h10-13-6h9-13-6h9-13-5h8-13-5h8-12-4h7-12-4h7
----------------------------------------------------------------------------------------------------------
----------------------------------------------------------------------------------------------------------
----------------------------------------------------------------------------------------------------------
----------------------------------------------------------------------------------------------------------




  T      T      T      T      T      T      T      T      T      T      T      T      T      T      T 
---------------------------------------------------------------------------------------------------------
-12-4h7-12-4h7-12-4h7-12-4h7-12-4h7-12-4h7-12-5h8-12-5h8-12-5h8-12-5h8-12-5h8-12-5h8-12-4h7-12-4h7-12-4h7
---------------------------------------------------------------------------------------------------------
---------------------------------------------------------------------------------------------------------
---------------------------------------------------------------------------------------------------------
---------------------------------------------------------------------------------------------------------



  T      T      T      T      T       T      T      T      T      T      T      T      T      T      T 
----------------------------------------------------------------------------------------------------------
-12-4h7-12-4h7-12-4h7-12-4h7-12-4h7--12-5h8-12-4h7-12-5h8-12-4h7-12-5h8-12-4h7-12-5h8-12-4h7-12-5h8-12-4h7
----------------------------------------------------------------------------------------------------------
----------------------------------------------------------------------------------------------------------
----------------------------------------------------------------------------------------------------------
----------------------------------------------------------------------------------------------------------





  T      T      T      T      T       T
--------------------------------------------------------------------------------------------
-12-5h8-12-4h7-12-5h8-12-4h7-12-5h8--12-p5-\------------------------------------------------
--------------------------------------------------------------------------------------------
--------------------------------------------------------------------------------------------
--------------------------------------------------------------------------------------------
----------------------------------------------4-/-10-\-/19p0---(0)-12----(0)---(0)\---------



have fun! e-mail me if i got anything wrong (i probably did, i mean seriously, its van halen i'm trying to tab)
peace
-chase

Guitar Tabs FROM THE TOP 60 ARTISTS
1.  AC/DC Guitar Tabs
2.  AEROSMITH Guitar Tabs
3.  ALANIS MORISSETTE Guitar Tabs
4.  BEATLES Guitar Tabs
5.  BLINK 182 Guitar Tabs
6.  BOB DYLAN Guitar Tabs
7.  BOB MARLEY Guitar Tabs
8.  BUSH Guitar Tabs
9.  COLDPLAY Guitar Tabs
10.  DAVE MATTHEWS Guitar Tabs
11.  ERIC CLAPTON Guitar Tabs
12.  GRATEFUL Dead Guitar Tabs
13.  GREEN DAY Guitar Tabs
14.  IRON MAIDEN Guitar Tabs
15.  JACK JOHNSON Guitar Tabs
16.  JIMI HENDRIX Guitar Tabs
17.  JOHN MAYER Guitar Tabs
18.  JOHNNY CASH Guitar Tabs
19.  LED ZEPPELIN Guitar Tabs
20.  LIMP BIZKIT Guitar Tabs
21.  METALLICA Guitar Tabs
22.  NEIL YOUNG Guitar Tabs
23.  NIRVANA Guitar Tabs
24.  PEARL JAM Guitar Tabs
25.  PINK FLOYD Guitar Tabs
26.  RADIOHEAD Guitar Tabs
27  RED HOT CHILI PEPPERS Guitar Tabs
28  ROLLING STONES Guitar Tabs
29  STONE TEMPLE PILOTS Guitar Tabs
30  U2 Guitar Tabs
31.  VAN HALEN Guitar Tabs
32.  WEEZER Guitar Tabs