Guitar Resources


So This Is Love (By VAN HALEN)
 
From: bendecho@tijuana.mex (Ben Decho)
Date: Wed, 28 Nov 2001 14:02:52 GMT
_____________________________________________

 I *KNOW* this isn't exactly correct, and I don't think I've played this for 8
months or more.  After all the fuss to do this song, we did this song maybe
twice.

I just picked up a guitar, and I'm straining to remember how I did it then, but
I think this should get you started:  (Remember, this is tuned down a 1/2 step,
so if you play 440 pitch you won't be in tune with the CD....)

Intro:

E||------------|------------------------------|------------------------|
B||--7-8--5~~--|-7--5-------------------------|------------------------|
G||--7-7--5~~--|-7--5---7--5------------------|------------------------|
D||------------|--------7--5---7---4~~--------|------------------------|
A||------------|---------------7---5~~--------|------------------------|
E||------------|------------------------------|------------------------|

~ = Finger vibrato


This is played pretty much throughout the vocal part.  The the part about "you
got me on pins & needles:


E||----------------------------------|---------------------------------|
B||----------------------------------|---------------------------------|
G||----------------------------------|---------------------------------|
D||--5-5-5-5-5-5-5---------7(7)---4--|---------------------------------|
A||--3-3-3-3-3-3-3--5-(5)--5(5)---2--|--3----5----7--------------------|
E||-----------------3-(3)------------|--1----3----5--------------------|

Play or overplay the above chords to what suits your style.  Chords in
parenthesis indicates where you could add a strum.


After the distortion is added, and the singing is "So,this is love...":

E||------------|------------------------------|------------------------|
B||-7-8-5~-----|--5-5-------------------------|------------------------|
G||-7-7-5~-----|--5-5-------------------------|------------------------|
D||------------|---------7--5--7--4-----------|------------------------|
A||------------|---------7--5--7--5-----------|------------------------|
E||------------|------------------------------|------------------------|


Clean up the distortion and play the above over the next verse lines.


I know this isn't right, but it should get many started on what to play, and
maybe someone (since this tab isn't posted anywhere on the internet) can correct
a few things.







Guitar Tabs FROM THE TOP 60 ARTISTS
1.  AC/DC Guitar Tabs
2.  AEROSMITH Guitar Tabs
3.  ALANIS MORISSETTE Guitar Tabs
4.  BEATLES Guitar Tabs
5.  BLINK 182 Guitar Tabs
6.  BOB DYLAN Guitar Tabs
7.  BOB MARLEY Guitar Tabs
8.  BUSH Guitar Tabs
9.  COLDPLAY Guitar Tabs
10.  DAVE MATTHEWS Guitar Tabs
11.  ERIC CLAPTON Guitar Tabs
12.  GRATEFUL Dead Guitar Tabs
13.  GREEN DAY Guitar Tabs
14.  IRON MAIDEN Guitar Tabs
15.  JACK JOHNSON Guitar Tabs
16.  JIMI HENDRIX Guitar Tabs
17.  JOHN MAYER Guitar Tabs
18.  JOHNNY CASH Guitar Tabs
19.  LED ZEPPELIN Guitar Tabs
20.  LIMP BIZKIT Guitar Tabs
21.  METALLICA Guitar Tabs
22.  NEIL YOUNG Guitar Tabs
23.  NIRVANA Guitar Tabs
24.  PEARL JAM Guitar Tabs
25.  PINK FLOYD Guitar Tabs
26.  RADIOHEAD Guitar Tabs
27  RED HOT CHILI PEPPERS Guitar Tabs
28  ROLLING STONES Guitar Tabs
29  STONE TEMPLE PILOTS Guitar Tabs
30  U2 Guitar Tabs
31.  VAN HALEN Guitar Tabs
32.  WEEZER Guitar Tabs